Artists by letter: A B C D E F G H I J K L M N O P Q R S T U V W X Y Z 0-9

 
Gold Chords
This is a really beautiful song by Wake Owl based off the youtube video:
https://www.youtube.com/watch?v=NgHMqbaRfr0
~DISCLAIMER~ I do not own any of these songs, these are only for personal use


There are 4 main chords in this song 
Am    C     G      F

They are picked in this pattern for the verses/intro

Am
E|--------0--------0-----------|      
B|-----1--------1--------1-----|
G|--2--------2--------2--------|
D|-----------------------------| x4
A|-----------------------------|
E|-----------------------------|

C
E|--------0--------0-----------|
B|-----1--------1--------1-----|
G|--0--------0--------0--------|
D|-----------------------------| x2
A|-----------------------------|
E|-----------------------------|

G
E|--------3--------3-----------|
B|-----3--------3--------3-----|
G|--0--------0--------0--------|
D|-----------------------------| x2
A|-----------------------------|
E|-----------------------------|

F
E|--------1--------1-----------|
B|-----1--------1--------1-----|
G|--2--------2--------2--------|
D|-----------------------------| x2
A|-----------------------------|
E|-----------------------------|


[intro] 
(picking) 
Am (x4) C (x2) G (x2)    }X2   Am
N.C.

[Verse 1]
 (picking)
Am                    C            G               Am
So, didn't you find love or salvation in what they do,
Am                     C                         G
A heart is built of gold, they fairies they are too, it's in the hands you
F
Hold,
Am                 C                       G                           F
How long can we ignore, we build a little more, and then we break our truth


[Pre-Chorus]
(picking then transition into strumming D D DUDUDUD D)
Am C G Am C G F
Ooo

[Chorus] 
~strumming from now on~
Am                      C          G               Am
I don't feel like I'm falling, I'm up against the sky,
Am                  C           G            F
I said I'd taken it all in to make the good life,
Am                      C           G              Am
I don't feel like I'm falling, I'm up against the sky,
Am              C            G                       F
Let's grab the heart of the world and turn into the light

[Verse 2]
Am                  C                         F                 C
But I cannot turn around, the angels hear me now, go where I'm bound,
Am                    C             F              C
You smile like you know the new world has been found

[pre-chorus]
Am C G Am C G F
Ooo

[Chorus] 
Am                      C          G               Am
I don't feel like I'm falling, I'm up against the sky,
Am                  C           G            F
I said I'd taken it all in to make the good life,
Am                      C           G              Am
I don't feel like I'm falling, I'm up against the sky,
Am              C            G                       F
Let's grab the heart of the world and turn into the light
Am                      C           G              Am
I don't feel like I'm falling, I'm up against the sky,
Am              C            G                       F
Let's grab the heart of the world and turn into the light

[Outro]
F   Am (single strum letting it ring out)
N.C.
 
 
Wake Owl - Gold Chords :: indexed at Ultimate Guitar.
Gold tabs @ 911Tabs
People who played Wake Owl - Gold Chords also played these songs by Wake Owl:
Gold Tab, Wild Country Chords, Gold Chords, Wild Country Chords, Grow Chords, Gold Chords

Quick tip, so you can enjoy Gold Chords even more:

After the registration (which takes just 10 seconds, remember?) you will be able to use your profile - your very own piece of YourChords.com.

Show us your talent, perform Gold Chords!

Here you can post a video or audio performance. Tell me more ...
Where can we find your performance? Tell me more ...
Your comment:
Please, log in to post your performance.