Artists by letter: A B C D E F G H I J K L M N O P Q R S T U V W X Y Z 0-9

 
Maneater Tab
-------------------------------------------------------------------------------
                             MANEATER - Nelly Furtado
-------------------------------------------------------------------------------
Tabbed by: Nfawkes
 This is my first attempt at tabbing, feel free to comment if you find any mistake.
You will have to figured out the rhythm it's not that complicated.

Intro
        Am#
e|---------------------------------------------------------------------------|
B|---------------------------------------------------------------------------|
G|---------------------------------------------------------------------------|
D|------(8)------------------------------------------------------------------|
A|------(8)------------------------------------------------------------------|
E|-------6-------------------------------------------------------------------|

Verse
                       Am# 
e|---------------------------------------------------------------------------|
B|---------------------------------------------------------------------------|
G|---------------------------------------------------------------------------|
D|---------------------8---8-------------------------------------------------|
A|---------------------8---8-------------------------------------------------|
E|------6h7p6h8p6h9p6--6---6-------------------------------------------------|

Chorus
      F#           Fm             G#             Am#
e|---(2)----------(1)------------(4)-------------(6)--------------------------|
B|---(2)----------(1)------------(4)-------------(6)--------------------------|
G|---(3)----------(1)------------(5)-------------(6)--------------------------|
D|----4------------3--------------6---------------8---------------------------|
A|----4------------3--------------6---------------8---------------------------|
E|----2------------1--------------4---------------6---------------------------|

Bridge 

e|---------------------------------------------------------------------------|
B|---------------------------------------------------------------------------|
G|---------------------------------------------------------------------------|
D|---------------------------------------------------------------------------|
A|---------------------------------------------------------------------------|
E|---2-----1-6--------------9-----6-9-8-6------------------------------------|

Outro 

e|---------------------------------------------------------------------------|
B|---------------------------------------------------------------------------|
G|---------------------------------------------------------------------------|
D|---------------------------------------------------------------------------|
A|---------------------------------------------------------------------------|
E|----2-2-2-2-1-1-1-1-4-4-4-4-6-6-6-6----------------------------------------|



************************************
| () Optional Notes
| h   hammer-on
| p   pull-off

************************************
 
 
Nelly Furtado - Maneater Tab :: indexed at Ultimate Guitar.
Maneater tabs @ 911Tabs

About the artist behind Maneater Tab:

Nelly Kim Furtado (born December 2, 1978) is a Canadian singer-songwriter, record producer, actress and instrumentalist, who also holds a Portuguese citizenship.[1]

Furtado came to fame in 2000 with the release of her debut album Whoa, Nelly!, which featured her breakthrough Grammy Award-winning single "I'm like a Bird". After becoming a mother and releasing the less commercially successful Folklore (2003), she returned to prominence in 2006 with the release of Loose and its hit singles "Promiscuous", "Maneater", "Say It Right", and "All Good Things (Come to an End)". Furtado is known for experimenting with different instruments, sounds, genres, vocal styles and languages. This diversity has been influenced by her wide-ranging musical taste and her interest in different cultures.[2][3]

Indexed at Wikipedia.

Show us your talent, perform Maneater Tab!

Here you can post a video or audio performance. Tell me more ...
Where can we find your performance? Tell me more ...
Your comment:
Please, log in to post your performance.