Artists by letter: A B C D E F G H I J K L M N O P Q R S T U V W X Y Z 0-9

 
The Third Of Arrivals Tab
---------------------------------------------------------------------------------------
        NECROPHOBIC-"THE THIRD OF ARRIVALS"-from Third Antichrist 1999 BLACK MARK
---------------------------------------------------------------------------------------
Tabbed by:Baldo Torbarina
E-mail:NihilView


Tuning:D STANDARD DGCFAD tabbed only lead guitar parts,second guitar iz mainly powerchords background!


|-----------------------------------------------------------------------------------------------|
|-----------------------------------------------------------------------------------------------|INTRO
|----------5---------------------------------------------------4--------------------------------|SECTION A.
|--2-2-2-------2-2-2----5------------5-4--------------1-1-1--------1-1-1--4----------4-4-3------|
|-----------------------------2-2-2-------5-----------------------------------1-1-1---------4---|
|-----------------------------------------------------------------------------------------------|


|---------------------------------------------------------------------------------------------|
|---------------------------------------------------------------------------------------------|INTRO
|----------5-----------4-------------8----------7---------------------------------------------|SECTION B.
|--2-2-2-------2-2-2----------5-5-5------5-5-5-------------8---------7-----------2-2--3-------|
|---------------------------------------------------5-5-5-----5-5-5-------0-0-0----------2----|
|---------------------------------------------------------------------------------------------|



|---------------------------------------------------------------------------|
|---------------------------------------------------------------------------|
|---------------------------------7----10-----------------------------------| VERSE
|--2------7-9-------9-10-12-------7----10-----------------------------------|
|--2------5-7-------7-8--10-------5----8------------------------------------|
|--0-0-0--5-7--0-0--7-8--10--0-0--5----8------------------------------------|

   PLAY INTRO SECTION A+B


                                CHORUS HARMONY!!
|---------------------------------------------------------------------------------------------------------|
|---------------------------------------------------------------------------------------------------------|
|---------------------------------------------------------------------------------------------------------|
|-----------9-9-9--10-10--9-9-----------------10-10-9-9-10------------9-9-9--10-10--9-9-------------------|
|---7-7-7--------------------------10-10-10--------------------9-9-9-----------------------10-10-9-10-----|
|------------------------------------------------------------------------------------------------------7--|



|-----------------------------------------------------------------------------------------|
|-----------------------------------------------------------------------------------------|BREAK
|-----------------------------------------------------------------------------------------|
|--2---------------5-------5-4-5-------------------------5--------5-4-4-5----5-6--3-------|
|--2--------------------------------3-2--------------------------------------5-6--3-------|
|--0-///////--0--------0------------------5---------0---------0--------------3-4--1-------|



|------------------------------------------------------------------------------------------|
|------------10-------11-10-8h-10----------------13-14-13--13h-15p-13h-15-13-12------------|INTERLUDE
|----7vv---------7-----------------------10vv----------------------------------------------|
|------------------------------------------------------------------------------------------|
|------------------------------------------------------------------------------------------|
|------------------------------------------------------------------------------------------|

|----------------------------------------------------------------------------------11p-10h-11------|
|-------12--------13---------12----13-12-10-12------------8-------9-------8-----8--------------11--|
|--9---------9----------9----------------------------5--------5-------5----------------------------|
|--------------------------------------------------------------------------------------------------|
|--------------------------------------------------------------------------------------------------|
|--------------------------------------------------------------------------------------------------|


                                 BRIDGE!!
|-----------------------------------------------------------------------------------------------------|
|-----------------------------------------------------------------------------------------------------|
|------2------3-2---------------3-------4-3---------------2-------3-2---------------------------------|
|------------------3-2-----------------------4-3-----------------------3-2---------4--------5-4-2-4---|
|--0-------0---------------1--------1-----------------0-------0---------------------------------------|
|-----------------------------------------------------------------------------2-2------2-2------------|




!-----------------------------------------------------------------------------------------------------!
!-------------------------------------------5-6-------------------------------------------------------!
!------2------3-2--------------3------4-3--------------2-----3-2--------------------------------------!
!-----------------3-2--------------------------------------------3-2------------4---------------------!
!--0------0----------------1-------1---------------0------0------------------------------------5------!
!-----------------------------------------------------------------------2-2-2------2-2--3-3-3-----6---!



!---------------------------------!
!---------------------------------!
!---8--------7--10----------------!FILL
!---8--------7--10----------------!
!---6--------5--8-----------------!
!---6--------5--8-----------------!



REPEAT:INTRO SECTION
        VERSE
        CHORUS



************************************

| /   slide up
| \   slide down
| h   hammer-on
| p   pull-off
| ~   vibrato
| +   harmonic
| x   Mute note
| b   Bend
| pb  Pre-bend
| br  Bend release
| pbr Pre-bend release
| brb Bend release bend

************************************
 
 
Necrophobic - The Third Of Arrivals Tab :: indexed at Ultimate Guitar.
The Third Of Arrivals tabs @ 911Tabs
People who played Necrophobic - The Third Of Arrivals Tab also played these songs by Necrophobic:
Awakening Tab, The Nocturnal Silence Tab, Roots Of Heldrasill Tab, Into Armageddon Tab, He Who Rideth In Rage Tab, Frozen Empire Tab

Quick tip, so you can enjoy The Third Of Arrivals Tab even more:

After the registration (which takes just 10 seconds, remember?) you will be able to use your profile - your very own piece of YourChords.com.

Show us your talent, perform The Third Of Arrivals Tab!

Here you can post a video or audio performance. Tell me more ...
Where can we find your performance? Tell me more ...
Your comment:
Please, log in to post your performance.