Artists by letter: A B C D E F G H I J K L M N O P Q R S T U V W X Y Z 0-9

 
Cult Of Blood Tab
   
       NECROPHOBIC-"CULT OF BLOOD" FROM "BLOODHYMNS"
                    tunning=D STANDARD DGCFAD
[INTRO]

|----------------------------------------------------------------------------------------------|
|----------------------------------------------------------------------------------------------|
|-----------------------------------------------------------------6-6-6----------------5-5-5---|
|-----------------4-4-4------------------3-3-3-----------4-4-4-4---------6-6-6--7-7-7----------|
|------------------------4-4-4--5-5-5-5--------------------------------------------------------|
|-2-2-2-2-2-2-2--------------------------------------------------------------------------------|

[PRE-CHORUS]
|-------------------------------------------------------------------------------------------------|
|-------------------------------------------------------------------------------------------------|
|---------------------4---------------------------------------------------------------------------|
|--2-2-2-5-5-5-4-4-5----5-4-5-------------------------5-------------------------------------------|
|----------------------------------3-3-3-6-6-6-5-5-6----6-5-6------------------------7------------|
|-------------------------------------------------------------------5-5-5-8-8-7-7-8-----8-7--5----|

[CHORUS]
|-------------------------------/---------------------------------------------------|
|-------------------------------/---------------------------------------------------|
|-------------------------------/-----9------5--8-----9----------9--------5--8------|
|-------------------7-----------/-----9------5--8-----9--10-9-10---10-9---5--8------|
|--5-5-5-8-8-7-7-8----8-7--5----/-----7------3--6-----7-------------------3--6------|
|-------------------------------/-----7------3--6-----7-------------------3--6------|
  
[VERSE]
|---------------------------------------------------------------------------|
|---------------------------------------------------------------------------|
|---------------------------------------------------------------------------|
|----------------------------------------------------------------------2----|
|---7-7-7-7--------6-6-6-6-------------7-7-7-7-------6-6-6-6-----------2----|
|-------------0---------------5------------------0-------------5-5-5---0----|

 (INTERLUDE)
|----------7--6------------------------------------------6--5----------------------------------|
|----5-------------5--7-8---5--7-8---5--7-8--------3------------3--5-6---3---5-6---3---6-5-----|
|----------------------------------------------------------------------------------------------|
|----------------------------------------------------------------------------------------------|
|----------------------------------------------------------------------------------------------|
|----------------------------------------------------------------------------------------------|

 (DOOMY PART)
|----------------------------------------------------------------------------------|
|----------------------------------------------------------------------------------|
|----------------------------------------------------------------------------------|
|------------------------------------------------------------------3--2-2-2--------|
|---------7vv---7-7-8-7---------------8---6vvv----3----6-----------3--2-2-2--------|
|---0----------------------0----6vv---------------1----4-----------1--0-0-0-/////--|


 (LEADS)
|----------12h-15p-12--------------------12h-15p-12--------------------12h-15p-12------------------|
|----------------------13----------------------------13----------------------------13--------------|
|----9vv-------------------14----------------------------12--7vv----------------------14--9vv------|
|-------------------------------10-----------------------------------------------------------------|
|--------------------------------------------------------------------------------------------------|
|--------------------------------------------------------------------------------------------------|

|----------------------------------------------12-11--14-12--15-14-----------------------------------|
|---------------------------------------13-12--------------------------13vv--12vv--------------------|
|--9-9-8--11-11-9--12-12-11--14-14-12-----------------------------------------------12-11--9--11--9v-|
|----------------------------------------------------------------------------------------------------|
|----------------------------------------------------------------------------------------------------|
!----------------------------------------------------------------------------------------------------!


!------------------------17h-19---------------------------------------------------------17-19--------!
!--17-17--19-17--20-17-----------------------------20-19-17---------15-15-17-15--19p15---------------!
!-----------------------------------17-17--19-17-------------19--------------------------------------!
!----------------------------------------------------------------------------------------------------!
!----------------------------------------------------------------------------------------------------!
!----------------------------------------------------------------------------------------------------!


!------------------15-14-12---------------------------17-17--19-19-20-20------------------------------!
!--12-12-13--12---------------15---15br---17--19--20----------------------20-19---20v-19v---20-19-17--!
!-----------------------------------------------------------------------------------------------------!
!-----------------------------------------------------------------------------------------------------!
!-----------------------------------------------------------------------------------------------------!
!-----------------------------------------------------------------------------------------------------!

 (FILL)
!--------------------------------!
!--------------------------------!
!--------------------------------!
!--2-2--3-3--5-5--6-6-6----------!
!--2-2--3-3--5-5--6-6-6----------!
!--0-0--1-1--3-3--4-4-4----------!


************************************

| x   Dead note
| g   Grace note
| (n) Ghost note
| h   Hammer-on
| p   Pull-off
| r   Release
| >   Accented note
| t   Tapping
| b   Bend
| br  Bend release
| pb  Pre-bend
| pbr Pre-bend release
| /   Slide up
| \   Slide down
| ~   Vibrato
| s   Slap
| P   Pop
| PM  Palm mute
| TR  Trill
| N   Tremolo

************************************

 
 
Necrophobic - Cult Of Blood Tab :: indexed at Ultimate Guitar.
Cult Of Blood tabs @ 911Tabs
People who played Necrophobic - Cult Of Blood Tab also played these songs by Necrophobic:
Awakening Tab, The Nocturnal Silence Tab, Roots Of Heldrasill Tab, Into Armageddon Tab, He Who Rideth In Rage Tab, Frozen Empire Tab

Quick tip, so you can enjoy Cult Of Blood Tab even more:

After the registration (which takes just 10 seconds, remember?) you will be able to use your profile - your very own piece of YourChords.com.

Show us your talent, perform Cult Of Blood Tab!

Here you can post a video or audio performance. Tell me more ...
Where can we find your performance? Tell me more ...
Your comment:
Please, log in to post your performance.