Artists by letter: A B C D E F G H I J K L M N O P Q R S T U V W X Y Z 0-9

 
Dark Wings Of Deceptions Tab
-------------------------------------------------------------------------------
                             Dark Wings of Deceptions - Necronomicon
-------------------------------------------------------------------------------
Canadian Death Metal band(NOT black metal thx UG), the song is off the album The Sacred Medicines, 
i was surprised they aren't on here, saw them with vital remains, absolutely intense.

Tabbed by: Clydelee
E-mail: [email protected]

Tuning: Drop C#, you could probably play it in C# standard if you felt like it.
Tempo: ~114-115

Opening Riff, 0:00
   1    +    2    +    3    +    4    +    1    +    2    +    3    +    4    +   
e|-------------------------------------------------------------------------------|
B|-------------------------------------------------------------------------------|
G|-------------------------------------------------------------------------------|
D|-------------------------------------------------------------------------------|
A|-5--------------5----4----4----5--------------5----8----8----8--------------5--|
E|------0----0------------------------0----0------------------------0----0-------|


   1    +    2    +    3    +    4    +    1    +    2    +    3    +    4    +   
e|-------------------------------------------------------------------------------|
B|-------------------------------------------------------------------------------|
G|-------------------------------------------------------------------------------|
D|----------------3--------------5-----------------------------------------------|
A|-4----4----------------------------------5--------------5----4----4----5-------|
E|-----------3---------3----5---------1---------0----0------------------------0--|


   1    +    2    +    3    +    4    +    1    +    2    +    3    +    4    +   
e|-------------------------------------------------------------------------------|
B|-------------------------------------------------------------------------------|
G|-------------------------------------------------------------------------------|
D|-------------------------------------------------------------------------------|
A|------5----8----8----8--------------5----4----4--------------------------------|
E|-0------------------------0----0-------------------3----3----3----5----5----1--|


Verse Riff but not yet verse, ~0:12
   1    +    2    +    3    +    4    +    1    +    2    +    3    +    4    +   
e|-------------------------------------------------------------------------------|\
B|-------------------------------------------------------------------------------| \
G|-------------------------------------------------------------------------------|  2x
D|-------------------------------------------------------------------------------|  /
A|-------------------------------------------------------------------------------| /
E|-0----0----0----0----1--------(1b)-------0----0----0----0----1--------(1b)-----|/


   1    +    2    +    3    +    
e|------------------------------|
B|------------------------------|
G|------------------------------|
D|------3--------------5--------|
A|------------------------------|
E|-3---------3----5---------1---|


Opening Riff, repeat first 3 bars 3 times, ~0:23 then go on to last part ~0:41
   1    +    2    +    3    +    4    +    1    +    2    +    3    +    4    +   
e|-------------------------------------------------------------------------------|
B|-------------------------------------------------------------------------------|
G|-------------------------------------------------------------------------------|
D|-------------------------------------------------------------------------------|
A|-5--------------5----4----4----5--------------5----8----8----8--------------5--|
E|------0----0------------------------0----0------------------------0----0-------|

                                         ~0:41 
   1    +    2    +    3    +    4    +    1    +    2    +    3    +    4    +   
e|---------------------------------------|---------------------------------------|
B|---------------------------------------|---------------------------------------|
G|---------------------------------------|---------------------------------------|
D|----------------3--------------5-------|---------------------------------------|
A|-4----4--------------------------------|-5--------------5----4----4----5-------|
E|-----------3---------3----5---------1--|------0----0------------------------0--|


   1    +    2    +    3    +    4    +    1    +    2    +    3    +    4    +   
e|-------------------------------------------------------------------------------|
B|-------------------------------------------------------------------------------|
G|-------------------------------------------------------------------------------|
D|-------------------------------------------------------------------------------|
A|------5----8----8----8--------------5----4----4--------------------------------|
E|-0------------------------0----0-------------------3----3----3----5----5----1--|


Verse start, ~0:48
   1    +    2    +    3    +    4    +    1    +    2    +    3    +    4    +   
e|-------------------------------------------------------------------------------|\
B|-------------------------------------------------------------------------------| \
G|-------------------------------------------------------------------------------|  8x
D|-------------------------------------------------------------------------------|  /
A|-------------------------------------------------------------------------------| /
E|-0----0----0----0----1--------(1b)-------0----0----0----0----1--------(1b)-----|/


   1    +    2    +    3    +    4    +    1    +    2    +    3    +    4    +   
e|-------------------------------------------------------------------------------|\
B|-------------------------------------------------------------------------------| \
G|-------------------------------------------------------------------------------|  4x
D|-------------------------------------------------------------------------------|  /
A|-8----5---------4----3----2----1---(1)-----------------------------------------| /
E|-----------6-----------------------------0----0----0----0----1--------(1b)-----|/


?"Transition Riff"?, ~1:39
   1    +    2    +    3    +    4    +    1    +    2    +    3    +    4    +   
e|-------------------------------------------------------------------------------|\
B|-------------------------------------------------------------------------------| \
G|-------------------------------------------------------------------------------|  3x
D|-7----7----7----3----3----3----5----5----1----1----1----1----1----1----1----1--|  /
A|-------------------------------------------------------------------------------| /
E|-7----7----7----3----3----3----5----5----1----1----1----1----1----1----1----1--|/


   1    +    2    +    3    +    4    +    1    +    2    +    3    +    4    +   
e|-------------------------------------------------------------------------------|
B|-------------------------------------------------------------------------------| 
G|-------------------------------------------------------------------------------|  
D|-7----7----7----3----3----3----5----5----1----1----1----1----1*----------------|  
A|-------------------------------------------------------------------------------| 
E|-7----7----7----3----3----3----5----5----1----1----1----1----------------------|


Verse Riff, ~1:55, "rrrrrRRRRRRAAAAAAAWWWWWWGGGHHH!!!!"
   1    +    2    +    3    +    4    +    1    +    2    +    3    +    4    +   
e|-------------------------------------------------------------------------------|\
B|-------------------------------------------------------------------------------| \
G|-------------------------------------------------------------------------------|  2x
D|-------------------------------------------------------------------------------|  /
A|-------------------------------------------------------------------------------| /
E|-0----0----0----0----1--------(1b)-------0----0----0----0----1--------(1b)-----|/


   1    +    2    +    3    +    
e|------------------------------|
B|------------------------------|
G|------------------------------|
D|------3----3---------5--------|
A|------------------------------|
E|-3--------------5---------1---|


Opening Riff, ~2:05
   1    +    2    +    3    +    4    +    1    +    2    +    3    +    4    +   
e|-------------------------------------------------------------------------------|
B|-------------------------------------------------------------------------------|
G|-------------------------------------------------------------------------------|
D|-------------------------------------------------------------------------------|
A|-5--------------5----4----4----5--------------5----8----8----8--------------5--|
E|------0----0------------------------0----0------------------------0----0-------|


   1    +    2    +    3    +    4    +      
e|----------------------------------------|
B|----------------------------------------|
G|----------------------------------------|
D|----------------3--------------5--------|
A|-4----4---------------------------------|
E|-----------3---------3----5---------1---|


Verse Riff, 2:12
   1    +    2    +    3    +    4    +    1    +    2    +    3    +    4    +   
e|-------------------------------------------------------------------------------|\
B|-------------------------------------------------------------------------------| \
G|-------------------------------------------------------------------------------|  2x
D|-------------------------------------------------------------------------------|  /
A|-------------------------------------------------------------------------------| /
E|-0----0----0----0----1--------(1b)-------0----0----0----0----1--------(1b)-----|/


   1    +    2    +    3    +    4    +    1    +    2    +    3    +    4    +   
e|-------------------------------------------------------------------------------|
B|-------------------------------------------------------------------------------|
G|-------------------------------------------------------------------------------|  
D|-------------------------------------------------------------------------------|
A|-8----5---------4----3----2----1---(1)-----------------------------------------|
E|-----------6-----------------------------0----0----0----0----1--------(1b)-----|


?"Transition Riff"?, ~2:24
   1    +    2    +    3    +    4    +    1    +    2    +    3    +    4    +   
e|-------------------------------------------------------------------------------|\
B|-------------------------------------------------------------------------------| \
G|-------------------------------------------------------------------------------|  3x
D|-7----7----7----3----3----3----5----5----1----1----1----1----1----1----1----1--|  /
A|-------------------------------------------------------------------------------| /
E|-7----7----7----3----3----3----5----5----1----1----1----1----1----1----1----1--|/


   1    +    2    +    3    +    4    +    1    +    2    +    3    +    4    +   
e|-------------------------------------------------------------------------------|
B|-------------------------------------------------------------------------------| 
G|-------------------------------------------------------------------------------|  
D|-7----7----7----3----3----3----5----5----1----1----1----1----1-----------------|  
A|-------------------------------------------------------------------------------| 
E|-7----7----7----3----3----3----5----5----1----1----1----1----1-----------------|


Rhythmic part 1,repeat pattern 4 times, ~2:41, 3/4?
                                   trp     trp
   1   e   +   a   2   e   +   a   3   e   +   a   1   e   +   a    
e|----------------------------------------------------------------|\
B|----------------------------------------------------------------| \
G|----------------------------------------------------------------|  \
D|----------------------------------------------------------------|   \
A|----------------------------------------------------------------|    \
E|-0---3---2-------1---2---1-------0--0--0-0--0--0-0---3---2------|     \
                                                                         \
                                                                          \
                   trp     trp                                             \
   2   e   +   a   3   e   +   a   1   e   +   a   2   e   +   a            \
e|----------------------------------------------------------------|          \
B|----------------------------------------------------------------|           \
G|----------------------------------------------------------------|            4x
D|----------------------------------------------------------------|            /
A|-----------------------------------------------------3---2------|           /
E|-1---2---1-------0--0--0-0--0--0-0---3---2-------1--------------|          /
                                                                            / 
                                                  (2/4??)                  /
   trp     trp                                     trp     trp            /
   1   e   +   a   2   e   +   a   3   e   +   a   1   e   +   a         / 
e|----------------------------------------------------------------|     /
B|----------------------------------------------------------------|    /
G|----------------------------------------------------------------|   / 
D|----------------------------------------------------------------|  /  
A|-------------------------------------2---1----------------------| / 
E|-0--0--0-0--0--0-0---3---2-------1---------------0--0--0-0--0--0|/


Rhythmic Part 2, this repeats twice, with some funky rhythm at the end, no idea, ~3:07, 2/4??
                   trp     trp                     trp     trp
   2   e   +   a   1   e   +   a   2   e   +   a   1   e   +   a    
e|----------------------------------------------------------------|
B|----------------------------------------------------------------|
G|----------------------------------------------------------------|
D|-5-------------------------------4------------------------------|
A|----------------------------------------------------------------|
E|-5---------------0--0--0-0--0--0-4---------------0--0--0-0--0--0|


   2   e   +  Weird rhythm pls help, 6th fret octave 2nd time only   
e|----------------|
B|----------------|
G|----------------|
D|-3----------6---|
A|----------------|
E|-3----------6---|


Rhythmic Part 3a, repeat 4 times, ~3:13
   trp     trp     trp     trp
   1   e   +   a   2   e   +   a   3   e   +   a   4   e   +   a    
e|----------------------------------------------------------------|
B|----------------------------------------------------------------|
G|----------------------------------------------------------------|
D|----------------------------------------------------------------|
A|----------------------------------------------------------------|
E|-0--0--0-0--0--0-0--0--0-0--0--0-1------------------------------|


Rhythmic Part 3b, similar to above but more complex, ~3:21
   trp     trp     trp     trp     trp             trp
   1   e   +   a   2   e   +   a   3   e   +   a   4   e   +   a    
e|----------------------------------------------------------------|
B|----------------------------------------------------------------|
G|----------------------------------------------------------------|
D|-----------------------------------------6---5-----------6---5--|
A|----------------------------------------------------------------|
E|-0--0--0-0--0--0-0--0--0-0--0--0-0--0--0-6---5---0--0--0-6---5--|

   trp     trp     trp     trp     trp             trp
   1   e   +   a   2   e   +   a   3   e   +   a   4   e   +   a    
e|----------------------------------------------------------------|
B|----------------------------------------------------------------|
G|----------------------------------------------------------------|
D|-----------------------------------------5---4-----------5---4--|
A|----------------------------------------------------------------|
E|-0--0--0-0--0--0-0--0--0-0--0--0-0--0--0-5---4---0--0--0-5---4--|

   trp     trp     trp     trp     trp             trp
   1   e   +   a   2   e   +   a   3   e   +   a   4   e   +   a    
e|----------------------------------------------------------------|
B|----------------------------------------------------------------|
G|----------------------------------------------------------------|
D|-----------------------------------------4---3-----------4---3--|
A|----------------------------------------------------------------|
E|-0--0--0-0--0--0-0--0--0-0--0--0-0--0--0-4---3---0--0--0-4---3--|

   trp     trp     trp     trp     trp             trp
   1   e   +   a   2   e   +   a   3   e   +   a   4   e   +   a    
e|----------------------------------------------------------------|
B|----------------------------------------------------------------|
G|----------------------------------------------------------------|
D|-----------------------------------------3---2-----------3---2--|
A|----------------------------------------------------------------|
E|-0--0--0-0--0--0-0--0--0-0--0--0-0--0--0-3---2---0--0--0-3---2--|

Repeat 2x, ~3:30
   trp     trp     trp     trp     trp             trp
   1   e   +   a   2   e   +   a   3   e   +   a   4   e   +   a    
e|----------------------------------------------------------------|
B|----------------------------------------------------------------|
G|----------------------------------------------------------------|
D|-----------------------------------------12--11----------12--11-|
A|----------------------------------------------------------------|
E|-0--0--0-0--0--0-0--0--0-0--0--0-0--0--0-12--11--0--0--0-12--11-|

   trp     trp     trp     trp     trp             trp
   1   e   +   a   2   e   +   a   3   e   +   a   4   e   +   a    
e|----------------------------------------------------------------|
B|----------------------------------------------------------------|
G|----------------------------------------------------------------|
D|-----------------------------------------11--10----------11--10-|
A|----------------------------------------------------------------|
E|-0--0--0-0--0--0-0--0--0-0--0--0-0--0--0-11--10--0--0--0-11--10-|

   trp     trp     trp     trp     trp             trp
   1   e   +   a   2   e   +   a   3   e   +   a   4   e   +   a    
e|----------------------------------------------------------------|
B|----------------------------------------------------------------|
G|----------------------------------------------------------------|
D|-----------------------------------------10--9-----------10--9--|
A|----------------------------------------------------------------|
E|-0--0--0-0--0--0-0--0--0-0--0--0-0--0--0-10--9---0--0--0-10--9--|

   trp     trp     trp     trp     trp             trp
   1   e   +   a   2   e   +   a   3   e   +   a   4   e   +   a    
e|----------------------------------------------------------------|
B|----------------------------------------------------------------|
G|----------------------------------------------------------------|
D|-----------------------------------------9---8-----------9---8--|
A|----------------------------------------------------------------|
E|-0--0--0-0--0--0-0--0--0-0--0--0-0--0--0-9---8---0--0--0-9---8--|

Crazy solo stuff, not even going to try, ~3:46

Repeat Rhythmic Parts 3a and 3b, including all respective repeats, ~4:20

1st half of Verse Riff as ending
   1    +    2    +    3    +    4    +    
e|-----------------------------------------|
B|-----------------------------------------|
G|-----------------------------------------|
D|-----------------------------------------|
A|-----------------------------------------|
E|-0----0----0----0----1--------(1b)-------|


Well thats it, if anyone could help with that rhythm at the end of "Rhythmic Part 2" ~3:07 that be cool, oh
yeah if anyone wants to do the solo that would also be cool, plus these guys have way better songs than this
one but i don't think i can tab them yet, too fast, so if anyone likes this band get their songs up!!

************************************
| *   harmonic
| b   Bend
************************************
 
 
Necronomicon - Dark Wings Of Deceptions Tab :: indexed at Ultimate Guitar.
Dark Wings Of Deceptions tabs @ 911Tabs
People who played Necronomicon - Dark Wings Of Deceptions Tab also played these songs by Necronomicon:
Dark Wings Of Deceptions

Quick tip, so you can enjoy Dark Wings Of Deceptions Tab even more:

If you spend just 10 seconds to register, you will be able to comment on all the chords and tabs and rate them. You will as well be able to comment on videos of your fellow guitarists and give them ratings from 1 to 5 ... And - of course - you can share your own videos with them and see what they think of you. :)
Click here to join us!

Show us your talent, perform Dark Wings Of Deceptions Tab!

Here you can post a video or audio performance. Tell me more ...
Where can we find your performance? Tell me more ...
Your comment:
Please, log in to post your performance.