Artists by letter: A B C D E F G H I J K L M N O P Q R S T U V W X Y Z 0-9

Rudolph The Red Nose Reindeer Tab (ver 2) - Misc Traditional


 
Rudolph The Red Nose Reindeer Tab
-------------------------------------------------------------------------------
                         RUDOLPH THE RED NOSE REINDEER
-------------------------------------------------------------------------------
Tuning:eBGDAE

e|---0-----3-0------0---0---3-2----------2-0------0---0---0------0-----3-0---|
B|-3---3-0-----3--3---3---3------1-3-1-------3--3---3---3---0--3---3-0-----3-|
G|-------------------------------------2-------------------------------------|
D|---------------------------------------------------------------------------|
A|---------------------------------------------------------------------------|
E|---------------------------------------------------------------------------|

e|---0---0---3-2----------2-0------0---0---5-3--0-0-3-0-----------0----------|
B|-3---3---3------1-3-1-------3--3---3---3--------------3-0-3---1---3-1-0----|
G|----------------------2----------------------------------------------------|
B|---------------------------------------------------------------------------|
G|---------------------------------------------------------------------------|
D|---------------------------------------------------------------------------|
A|---------------------------------------------------------------------------|
E|---------------------------------------------------------------------------|

e|---------------0-0--------------0-----3-0------0---0---3-2----------2-0----|
B|-----0-1-3-3-3-----3-1-0------3---3-0-----3--3---3---3------1-3-1-------3--|
G|-2-2---------------------0-2--------------------------------------2--------|
D|---------------------------------------------------------------------------|
A|---------------------------------------------------------------------------|
E|---------------------------------------------------------------------------|

e|---0---0---5-3-------------------------------------------------------------|
B|-3---3---3-----------------------------------------------------------------|
G|---------------------------------------------------------------------------|
D|---------------------------------------------------------------------------|
A|---------------------------------------------------------------------------|
E|---------------------------------------------------------------------------|

 
 
Misc Traditional - Rudolph The Red Nose Reindeer Tab :: indexed at Ultimate Guitar.
Rudolph The Red Nose Reindeer tabs @ 911Tabs

Quick tip, so you can enjoy Rudolph The Red Nose Reindeer Tab even more:

You might want to transpose the song if it is too high or too low for you to sing. Just click the desired option while playing a song and all the chords will automatically be transponded into a new key.

Show us your talent, perform Rudolph The Red Nose Reindeer Tab!

Here you can post a video or audio performance. Tell me more ...
Where can we find your performance? Tell me more ...
Your comment:
Please, log in to post your performance.