Artists by letter: A B C D E F G H I J K L M N O P Q R S T U V W X Y Z 0-9

 
Poor Wayfaring Stranger Tab
E|-------------|---------------|---------|-------------|
B|-----------0-|-------0-------|---------|----------0--|
G|--------0----|-0--2-----0----|----0--2-|----0--2-----|
D|--2--2-------|-------------2-|-2-------|-2-----------|
A|-------------|---------------|---------|-------------|
E|-------------|---------------|---------|-------------|


E|-------------|---------------|------------|---------------|
B|-------3--0--|-------0-------|------------|---------------|
G|-------------|-0--2-----0----|-------0--2-|-0-------------|
D|--2--2-------|-------------2-|-2--2-------|----2--0--0h2--|
A|-------------|---------------|------------|---------------|
E|-------------|---------------|------------|---------------|


E|------------|-------------|
B|--0--0h3--5-|-3--5--3--0--|
G|------------|-------------|
D|------------|-------------|
A|------------|-------------|
E|------------|-------------|   x2


E|-------------|---------------|------------|---------------|
B|-----------0-|-------0-------|------------|---------------|
G|--------0----|-0--2-----0----|-------0--2-|-0-------------|
D|--2--2-------|-------------2-|-2--2-------|----2--0--0h2--|
A|-------------|---------------|------------|---------------|
E|-------------|---------------|------------|---------------|
 
 
Misc Traditional - Poor Wayfaring Stranger Tab :: indexed at Ultimate Guitar.
Poor Wayfaring Stranger tabs @ 911Tabs

Quick tip, so you can enjoy Poor Wayfaring Stranger Tab even more:

After the registration (which takes just 10 seconds, remember?) you will be able to use your profile - your very own piece of YourChords.com.

Show us your talent, perform Poor Wayfaring Stranger Tab!

Here you can post a video or audio performance. Tell me more ...
Where can we find your performance? Tell me more ...
Your comment:
Please, log in to post your performance.