Artists by letter: A B C D E F G H I J K L M N O P Q R S T U V W X Y Z 0-9

 
New Zealand National Anthem Tab
Tuning: Standard E

Use bridge pickup and lots of distortion!

e|-----------------------------------------------------------------------|
b|-----------------------------------------------------------------------|
g|----------4-4-2-0------5---4--2-0-----------------0-2-4--4-0---2-------|
d|--5-4-5-0------------2---0--------4-2-0---5-0-2-4------------2---5-4-5-|
a|-----------------------------------------------------------------------|
E|-----------------------------------------------------------------------|

e|-----------------------------------------------------------------------|
b|-----------------------------------------------------------------------|
g|-----------------------------------------------------------------------|
d|-12-12-------12-12-14-12-----------------------------------------------|
a|-------10-14---------------12--14--15-14-12----------------------------|
E|--------------------------------------------15-14-12-10----------------|

e|-----------------------------------------------------------------------|
b|-----------------------------------------------------------------------|
g|-----------------------------------------------------------------------|
d|-------------------12----12--------------------------------------------|
a|-10-------------12----------15-14-15-14-12-----------------------------|
E|----10-12-14-15----------------------------15--------------------------|

Or instead of playing the last note (15)     G major
e|-------------------------------------------3---------------------------|
b|-------------------------------------------3---------------------------|
g|-------------------------------------------4---------------------------|
d|-------------------------------------------5---------------------------|
a|-------------------------------------------5---------------------------|
E|-------------------------------------------3---------------------------|

 
 
Misc Traditional - New Zealand National Anthem Tab :: indexed at Ultimate Guitar.
New Zealand National Anthem tabs @ 911Tabs

Quick tip, so you can enjoy New Zealand National Anthem Tab even more:

If you don't really know how to deal with "Absus4" chord and his equally confusing brothers, just put the mouse cursor over them and you will be shown a helpful chord diagram.

Show us your talent, perform New Zealand National Anthem Tab!

Here you can post a video or audio performance. Tell me more ...
Where can we find your performance? Tell me more ...
Your comment:
Please, log in to post your performance.