Artists by letter: A B C D E F G H I J K L M N O P Q R S T U V W X Y Z 0-9

 
Greensleeves Tab
I recommend playing this song this way, in case of playing Greensleeves on an e-guitar;
if played on a single acoustic guitar I would prefer to use the Tabs by Justin Clark,
because of the additional baseline (link at the bottom of the page).


e|---------------------------------------------------------------------------|
B|---------------------------------------------------------------------------|
G|---------7--9---10-9--7----------------------------------------------------|
D|-7--10--------------------9--5---5h7-7/10--7-7-\6--7--9---6----------------|
A|-------------------------------------------------------------7~------------|
E|---------------------------------------------------------------------------|


e|---------------------------------------------------------------------------|
B|---------------------------------------------------------------------------|
G|---------7--9---10-9--7----------------------------------------------------|
D|-7--10--------------------9--5---7--9--10---9--7--/6------6--7~------------|
A|-------------------------------------------------------8-------------------|
E|---------------------------------------------------------------------------|


e|---------------------------------------------------------------------------|
B|---------------------------------------------------------------------------|
G|----12----12----11-9--7----------------------------------------------------|
D|---------------------------9--5---5h7-7/10--7-7-\6--7--9---6---------------|
A|-------------------------------------------------------------7~------------|
E|---------------------------------------------------------------------------|


e|---------------------------------------------------------------------------|
B|---------------------------------------------------------------------------|
G|----12----12----11-9--7----------------------------------------------------|
D|--------------------------9--5---7--9--10---9--7--/6------6--7~------------|
A|-------------------------------------------------------8-------------------|
E|---------------------------------------------------------------------------|


************************************
| h   Hammer-on
| /   Slide up
| \   Slide down
| ~   Vibrato
************************************

Other version by Justin Clark: https://tabs.ultimate-guitar.com/m/misc_traditional/greensleeves_tab.htm
 
 
Misc Traditional - Greensleeves Tab :: indexed at Ultimate Guitar.
Greensleeves tabs @ 911Tabs

Quick tip, so you can enjoy Greensleeves Tab even more:

You might want to transpose the song if it is too high or too low for you to sing. Just click the desired option while playing a song and all the chords will automatically be transponded into a new key.

Show us your talent, perform Greensleeves Tab!

Here you can post a video or audio performance. Tell me more ...
Where can we find your performance? Tell me more ...
Your comment:
Please, log in to post your performance.