Artists by letter: A B C D E F G H I J K L M N O P Q R S T U V W X Y Z 0-9

 
God Save Our Queen Tab
This is my first tab, feedback would be appreciated. Thanks.


|-------------------|-2--2--3--2--------|-------------|
|-3--3--5--2--3--5--|-------------5--3--|-5--3--2--3--|
|-------------------|-------------------|-------------|
|-------------------|-------------------|-------------|
|-------------------|-------------------|-------------|
|-------------------|-------------------|-------------|

           ...Send her victorious....
|-------2--3--|-5--5--5--5--3--2--|-3--3--3--3--2--0--|
|-3--5--------|-------------------|-------------------|
|-------------|-------------------|-------------------|
|-------------|-------------------|-------------------|
|-------------|-------------------|-------------------|
|-------------|-------------------|-------------------|

                    ...God save our Queen.
|-3--2--0-----2--3--5--|-7--3--2--0-----|
|----------3-----------|-------------3--|
|----------------------|----------------|
|----------------------|----------------|
|----------------------|----------------|
|----------------------|----------------|
 
 
Misc Traditional - God Save Our Queen Tab :: indexed at Ultimate Guitar.
God Save Our Queen tabs @ 911Tabs

Quick tip, so you can enjoy God Save Our Queen Tab even more:

If you don't really know how to deal with "Absus4" chord and his equally confusing brothers, just put the mouse cursor over them and you will be shown a helpful chord diagram.

Show us your talent, perform God Save Our Queen Tab!

Here you can post a video or audio performance. Tell me more ...
Where can we find your performance? Tell me more ...
Your comment:
Please, log in to post your performance.