Artists by letter: A B C D E F G H I J K L M N O P Q R S T U V W X Y Z 0-9

 
Tokyo Ghoul - Unravel Tab
e|-------------------------------------------------------------------------------|
B|-------------------------------------------------------------------------------|
G|----------------------------------------------------------7-7------------------|
D|-8-10-8-7------10-8-7-----------------------------------------------8-7-7-7-8-8|
A|----------10------------10---10-8---6-6-8-5-------5-5-5-5----------------------|
D|-------------------------------------------------------------------------------|
0:01

e|-------------------------------------------------------------------------------|
B|-------------------------------------------------------------------------------|
G|----------------------------------------------------------7-7------------------|
D|-8-10-8-7------10-8-7-----------------------------------------------8-7-7-7-8-8|
A|----------10------------10---10-8---6-6-8-5-------5-5-5-5----------------------|
D|-------------------------------------------------------------------------------|
0:15

e|-------------------------------------------------------------------------------------|
B|-------------------------------------------------------------------------------------|
G|-------------7-7----------------------------------------7-7-----------7--------------|
D|-7-8-8-8---8-----10-10---8-10-8-7-----------7-8-8-8---8-----10-10-8-----10-10-7-8----|
A|----------------------------------8-5-----------------------------------------------5|
D|-------------------------------------------------------------------------------------|
0:42

e|-----------------------------------------------------|
B|-----------------------------------------------------|
G|-----------------------------------------------------|
D|-3-3---------------3-3---------------3-3-------------|
A|-----55---3-3-55-------55---3-3-55-------55---3-3-3-5|
D|-----------------------------------------------------|
0:56

e|--------------------------------------------------------------------------------------------------------|
B|--------------------------------------------------------------------------------------------------------|
G|------------------------------------------------------10-------12-10------------------------------------|
D|-12---10---12-10-10-10-8-7-8-7-----12-10-10-8---8-7-8----7---8-------12-8-----8-8-7----7-8-----8-7-8-7--|
A|-------------------------------8----------------------------------------------------10-----------------8|
E|--------------------------------------------------------------------------------------------------------|
1:03

e|-----------------------------------------------------------------------------------|
B|-----------------------------------------------------------------------------------|
G|-----------------------------------------------10-------12-10----------------------|
D|-12-10-10-10-8-8-7-8-7-----12-10-10-10-8-8-7-8----7---8-------12-8-----8-8-7----7-8|
A|-----------------------8----------------------------------------------------10-----|
E|-----------------------------------------------------------------------------------|
1:18

e|---------------|
B|---------------|
G|---------------|
D|-12-10---------|
A|-------13-12-13|
E|---------------|
1:34

e|----------------------------------------------------------------------------|
B|----------------------------------------------------------------------------|
G|----------------------------------------------------------------------------|
D|-8-10-8-10---8-10-8-10---8-7-77-7-7-78---8-10-8-10---8-10-10---8-7-77-7-7-78|
A|----------------------------------------------------------------------------|
E|----------------------------------------------------------------------------|
1:43

e|------------------------------------------------------------------------------------|
B|------------------------------------------------------------------------------------|
G|--------------------------------------------------------------------------10-10-10\7|
D|-8-10-810---8-10-810---8-10-810---8-10-810---8-10-810---8-10-8-10-8-----------------|
A|------------------------------------------------------------------------------------|
E|------------------------------------------------------------------------------------|
1:49

e|----------------------------------------------------------------|
B|----------------------------------------------------------------|
G|----------------------------------------------------------------|
D|-3-3-------------3-3---------------3-3-------------3-3----------|
A|-----5---3-3-5-------5---3-3-1---------5---3-3-5-------5---3-3-1|
E|----------------------------------------------------------------|
2:25

e|----------------------------------------------------------|
B|----------------------------------------------------------|
G|----------------------------------------------------------|
D|-3-3---------------3-3---------------3-3------------12-13-|
A|-----55---3-3-55-------55---3-3-55-------55---3-3-5-------|
D|----------------------------------------------------------|
2:32

e|--------------------------------------------------------------------------------------------------------|
B|--------------------------------------------------------------------------------------------------------|
G|------------------------------------------------------10-------12-10------------------------------------|
D|-12---10---12-10-10-10-8-7-8-7-----12-10-10-8---8-7-8----7---8-------12-8-----8-8-7----7-8-----8-7-8-7--|
A|-------------------------------8----------------------------------------------------10-----------------8|
E|--------------------------------------------------------------------------------------------------------|
2:38

e|-----------------------------------------------------------------------------------|
B|-----------------------------------------------------------------------------------|
G|-----------------------------------------------10-------12-10----------------------|
D|-12-10-10-10-8-8-7-8-7-----12-10-10-10-8-8-7-8----7---8-------12-8-----8-8-7----7-8|
A|-----------------------8----------------------------------------------------10-----|
E|-----------------------------------------------------------------------------------|
2:54

e|----------------------------------------------------------------------------|
B|----------------------------------------------------------------------------|
G|-------------7-------12-10----------12-10----------12-10----------12-10-----|
D|-8-7-10-8-10-------8-------12-8---8-------12-8---8-------12-8---8-------12-8|
A|----------------------------------------------------------------------------|
E|----------------------------------------------------------------------------|
3:08

e|-------------------------------------------------------------------------------------------------|
B|-------------------------------------------------------------------------------------------------|
G|-----------------------------------------------10-------12-10------------------------------------|
D|-12-10-10-10-8-8-7-8-7-----12-10-10-10-8-8-7-8----7---8-------12-8-----8-8-7----7-8-----8-7-8-7--|
A|-----------------------8-----------------------------------------------------10-----------------8|
E|-------------------------------------------------------------------------------------------------|
3:19


e|------------------------------------------------------------|
B|------------------------------------------------------------|
G|-----------------------8---------------7-7-------8-7-7-7-8-8|
D|-8-10-8-7-------8-10-8--------------------------------------|
A|-------------------------------5-5-5-5----------------------|
E|------------------------------------------------------------|
3:36

 
 
Misc Cartoons - Tokyo Ghoul - Unravel Tab :: indexed at Ultimate Guitar.
Tokyo Ghoul - Unravel tabs @ 911Tabs

Quick tip, so you can enjoy Tokyo Ghoul - Unravel Tab even more:

If you spend just 10 seconds to register, you will be able to comment on all the chords and tabs and rate them. You will as well be able to comment on videos of your fellow guitarists and give them ratings from 1 to 5 ... And - of course - you can share your own videos with them and see what they think of you. :)
Click here to join us!

Show us your talent, perform Tokyo Ghoul - Unravel Tab!

Here you can post a video or audio performance. Tell me more ...
Where can we find your performance? Tell me more ...
Your comment:
Please, log in to post your performance.