Artists by letter: A B C D E F G H I J K L M N O P Q R S T U V W X Y Z 0-9

Spongebob - Krusty Krab Theme Tab - Misc Cartoons


 
Spongebob - Krusty Krab Theme Tab
E|--7--------7-----10--7-|-15h14p15--15--17--15--9--12--8-|
B|-----8--8-----8--------|--------------------------------|
G|-----------------------|--------------------------------|
D|-----------------------|--------------------------------|
A|-----------------------|--------------------------------|
E|-----------------------|--------------------------------|

E|--------------5--7--8p7p5-|-10h9p10--12--10--7--8p5-----|
B|--7--5--7--8--------------|-----------------------------|
G|--------------------------|-----------------------------|
D|--------------------------|-----------------------------|
A|--------------------------|-----------------------------|
E|--------------------------|-----------------------------|

E|--7--------7-----10--7-|-15h14p15--15--17--15--9--12--8-|
B|-----8--8-----8--------|--------------------------------|
G|-----------------------|--------------------------------|
D|-----------------------|--------------------------------|
A|-----------------------|--------------------------------|
E|-----------------------|--------------------------------|

E|--7h8h10--15--10--8-------------------------|
B|-----------------------10--7h8h7h8--8--10p8-|
G|--------------------------------------------|
D|--------------------------------------------|
A|--------------------------------------------|
E|--------------------------------------------|

***********************************
| h   Hummer-on
| p   Pull-off 
***********************************
 
 
Misc Cartoons - Spongebob - Krusty Krab Theme Tab :: indexed at Ultimate Guitar.
Spongebob - Krusty Krab Theme tabs @ 911Tabs

Quick tip, so you can enjoy Spongebob - Krusty Krab Theme Tab even more:

After the registration (which takes just 10 seconds, remember?) you will be able to use your profile - your very own piece of YourChords.com.

Show us your talent, perform Spongebob - Krusty Krab Theme Tab!

Here you can post a video or audio performance. Tell me more ...
Where can we find your performance? Tell me more ...
Your comment:
Please, log in to post your performance.