Artists by letter: A B C D E F G H I J K L M N O P Q R S T U V W X Y Z 0-9

 
Not For A Moment After All Tab
-------------------------------------------------------------------------------  
                      not for a moment  - Meredith Andrews
-------------------------------------------------------------------------------
Tabbed by:
E-mail:
key of Eb
Tuning:E-A-D-G-B-e

e|---------------------------------------------------------------------------|
B|---------------------------------------------------------------------------|
G|----0-0-3-0-0-0-3-0-----3-------3---0-0-3-0-0-0-3-0-----3------------------|
D|--------------------3-3---3-3-3---3-----------------3-3---3-3-3------------|
A|-----3-3-3-3-1-1-1-1-1-1-1-1-1-1-1-1-3-3-3-3-1-1-1-1-1-1-1-1-1-1-----------|
E|---------------------------------------------------------------------------|
intro: 
e|---------------------------------------------------------------------------|
B|---------------------------------------------------------------------------|
G|-------------------------0------------------------------------------0------|
D|------1---0----1--3------1----------------3--3----3--1--0--1--1-3---1------|
A|------1--------1----------------1---1-----5--5----1--------1--1---------1--|
E|---------------------------------------------------------------------------|
verse: You were reaching through the storm walking on the water even when I 
e|---------------------------------------------------------------------------|
B|---------------------------------------------------------------------------|
G|-----------------------------0---------------------------------0--1---0----|
D|-------3---3---1---0--1--3---1-----------------3-------3---3------1--------|
A|--1--------1---1------1---------1---1----1--1--1-------1---1---------------|
E|---------------------------------------------------------------------------|
  could not see  in the middle of it all when I thought you were a thousand    
e|---------------------------------------------------------------------------|
B|---------------------------------------------------------------------------|
G|---------------------------------------------------------------------------|
D|-3-----1-----------1--1--------------3-1-0--1------------------------------|
A|-------3-3--3---3-----1-1----3---3----------1------------------------------|
E|----------------4----------------4-----------------------------------------|
  miles away not for a moment did you forsake me 
e|---------------------------------------------------------------------------|
B|---------------------------------------------------------------------------|
G|-------3---0--------0-------------3----0-------0--1-0----------3-----------|
D|-----1-----1----3-------3---1---1------1---3------1-----1----------0---3---|
A|-----1----------1-------1-------1----------1------------1----1---------1---|
E|---------------------------------------------------------------------------|
chorus after all you are constant after all you are only good after all You 
e|---------------------------------------------------------------------------|
B|---------------------------------------------------------------------------|
G|-0-------------------------------------------------------------------------|
D|----3---1-------------1-1----------------3-1----0-1------------------------|
A|--------1------3---3--1-1-1-----3----3------------1------------------------|
E|---------------4---4------------4----4-------------------------------------|
  are sovereign not for a moment will you forsake me 
e|---------------------------------------------------------------------------|
B|---------------------------------------------------------------------------|
G|-------------0----0--------0-------1---0------------0---0---------0--------|
D|-------1---1------1---1-3--1-------1---1---3-----1--1-------1-3---1--------|
A|-------------------------------------------1------------------1------------|
E|---------------------------------------------------------------------------|
bridge: and every step every breath you are there every tear every cry 
e|---------------------------------------------------------------------------|
B|---------------------------------------------------------------------------|
G|-1--0-------------3----------3--------------3--------------------------0---|
D|--------3------1-----0----1------0------1------0------3-----1---1---1--1---|
A|--------1------1-----1----1------1------1------1------------1---3---3------|
E|---------------------------------------------------------------------------|
   every prayer in my heart at my worst when my world falls down not for a 
e|---------------------------------------------------------------------------|
B|---------------------------------------------------------------------------|
G|-0---------------0----------0-0--0------------0----0-----------------0-----|
D|-1--1---1----1---1--3---1---1----1--3----3--3-1----1---3----3----3---------|
A|----1---3----3----------------------1----1-------------1----1----1---------|
E|---------------------------------------------------------------------------|
  moment will you forsake me even in the dark even when it's hard You will 
e|---------------------------------------------------------------------------|
B|---------------------------------------------------------------------------|
G|-1-0----3------------------------------------------------------------------|
D|--------1------------------------------------------------------------------|
A|---------------------------------------------------------------------------|
E|---------------------------------------------------------------------------|
  never leave (repeat chorus)
************************************

| /   slide up
| \   slide down
| h   hammer-on
| p   pull-off
| ~   vibrato
| +   harmonic
| x   Mute note
| b   Bend
| pb  Pre-bend
| br  Bend release
| pbr Pre-bend release
| brb Bend release bend

************************************
 
 
Meredith Andrews - Not For A Moment After All Tab :: indexed at Ultimate Guitar.
Not For A Moment After All tabs @ 911Tabs
People who played Meredith Andrews - Not For A Moment After All Tab also played these songs by Meredith Andrews:
Not For A Moment After All Chords, Open Up The Heavens Chords, Strong God Chords, Soar Chords, Youre Not Alone Chords, Draw Me Nearer Chords

Quick tip, so you can enjoy Not For A Moment After All Tab even more:

YourChords.com Guitar Chords and Tabs Archive is currently indexing over 240'000 songs from 21'000+ different artists. And new chords just keep on coming in, so you will surely never run out of them.

Show us your talent, perform Not For A Moment After All Tab!

Here you can post a video or audio performance. Tell me more ...
Where can we find your performance? Tell me more ...
Your comment:
Please, log in to post your performance.