Artists by letter: A B C D E F G H I J K L M N O P Q R S T U V W X Y Z 0-9

 
Miles Away Acoustic Tab
Artist : Memphis May Fire
Song : Miles Away
Tabbed by : Dave Tran
instagram : davetran
email : [email protected]
No capo
Drop D Tuning
Key : F#minor


[Intro/Verse]
e|--0---0--|--0--|--0--|--0---0---0-------|
B|--0---0--|--0--|--2--|--0---0---0-------|
G|--6---9--|--9--|--2--|--11--9---7-------|
D|--7---9--|--9--|--0--|--11--9---7-------|
A|--4---7--|--7--|--0--|--9---7---5-------|
D|--4---7--|--6--|--0--|-------------7-6--|
   x8  x8    x16   x16   x7  x2  x5


[Prechorus]
e|--0---0--|--0--|
B|--0---0--|--0--|
G|--6---9--|--9--|
D|--7---9--|--9--|
A|--4---7--|--7--|
D|--4---6--|--7--|
   X4  x4    x8   


[Chorus]
e|--0---0--|--0--|
B|--0---0--|--2--|
G|--6---4--|--2--|
D|--7---4--|--0--|
A|--4---2--|--0--|
D|--4---2--|--0--|
   X8  x8    x16   


[Bridge]
e|--0--|--0--|--0--|--0--|
B|--0--|--0--|--0--|--0--|
G|--6--|--9--|--9--|--11-|
D|--7--|--9--|--9--|--11-|
A|--4--|--7--|--7--|--9--|
D|--4--|--6--|--7--|--9--|
   x8    x8    x8    x8   


[Soft Chorus]
e|--0---0--|--0--|--0--|
B|--0---0--|--0--|--0--|
G|--11--14-|--9--|--7--|
D|--11--14-|--9--|--7--|
A|--9---12-|--7--|--5--|
D|---------|-----|-----|
   x8  x8    x16   x32   



*****STRUCTURE*****
[Intro/Verse] x3
[Prechorus]   x1
[Chorus]      x4
[Intro/Verse] x2
[Chorus]      x4
[Bridge]      x4
[Soft Chorus] x1
[Chorus]      x4

 
 
Memphis May Fire - Miles Away Acoustic Tab :: indexed at Ultimate Guitar.
Miles Away Acoustic tabs @ 911Tabs
People who played Memphis May Fire - Miles Away Acoustic Tab also played these songs by Memphis May Fire:
Miles Away Chords, No Ordinary Love Chords, Speechless Chords, Miles Away Tab, Miles Away Chords, Cowbells Makin A Comeback Tab

Quick tip, so you can enjoy Miles Away Acoustic Tab even more:

Try out the AutoScroller option ... It scrolls the page for you, so you can totally focus on nailing that solo. You can choose among different speeds using your mouse or your keyboard (keys 0, 1, 2 and 3).

Show us your talent, perform Miles Away Acoustic Tab!

Here you can post a video or audio performance. Tell me more ...
Where can we find your performance? Tell me more ...
Your comment:
Please, log in to post your performance.