Artists by letter: A B C D E F G H I J K L M N O P Q R S T U V W X Y Z 0-9

 
Beneath The Burial Surface Tab
[INTRO:]

|---------------------------------------------------------------------------|
|---------------------------------------------------------------------------|
|---------------------------------------------------------------------------|
|---7-~---10-~---7-~--10-~--5-~-8-~-----------------------------------------|
|---7-----10-----7----10----5---8-------------------------------------------|
|---5-----8------5----8-----3---6-------------------------------------------|

|---------------------------------------------------------------------------------------------|
|----------------------------8------------------------------------------------11--------------|
|---9-9-9--7-7-7--9-9--10-------10--9-7-------12-12-12--10-10-10--12-12--13--------13-12--10--|
|---------------------------------------------------------------------------------------------|
|---------------------------------------------------------------------------------------------|
|---------------------------------------------------------------------------------------------|

|------------------------------------------------------------------------------|
|--------------------------------6---------------------------------------6-----|
|--7-7-7-5-5-7-7-8----7-7-7-5-5-----8------7-7-7-5-5-7-7-8----7-7-7-5-5-----8--|
|------------------------------------------------------------------------------|
|------------------------------------------------------------------------------|
|------------------------------------------------------------------------------|

[VERSE]

|---------------------------------------------------------------------------|
|---------------------------------------------------------------------------|
|---------------------------------------------------------------------------|
|---------------------------------------------------------------------------|
|--------5---------5--6----------------8---------6--5-----------------------|
|--3-----------3-----------------6-----------6------------------------------|


|---------------------------------------------------------------------------|
|---------------------------------------------------------------------------|
|---------------------------------------------------------------------------|
|-------3--------1--3--4---3-1-3--------------------------------------------|
|-1----------1--------------------------3--5------3--5--6--5-3-5------------|
|------------------------------------3---------3-------------------3--------|

[CHORUS]

|---------------------------------------------------------------------------|
|---------------------------------------------------------------------------|
|---------------------------------------------------------------------------|
|--5--------------------------------6---------------------------------------|
|--5--5---3--5-6----5---3---5-6-----6---6--7---6-4---6--7---6-4-------------|
|--3--------------------------------4---------------------------------------|

[BRIDGE]

|---------------------------------------------------------------------------|
|----8--6--8---9-9----8--6--9h11p9-9----8--6--8--9-9-9-8-8-8-7-7------------|
|---------------------------------------------------------------------------|
|---------------------------------------------------------------------------|
|---------------------------------------------------------------------------|
|---------------------------------------------------------------------------|

************************************

| ~   Tremolo note
| h   Hammer-on
| p   Pull-off

************************************

 
 
Limbonic Art - Beneath The Burial Surface Tab :: indexed at Ultimate Guitar.
Beneath The Burial Surface tabs @ 911Tabs
People who played Limbonic Art - Beneath The Burial Surface Tab also played these songs by Limbonic Art:
Beneath The Burial Surface

Quick tip, so you can enjoy Beneath The Burial Surface Tab even more:

If you don't really know how to deal with "Absus4" chord and his equally confusing brothers, just put the mouse cursor over them and you will be shown a helpful chord diagram.

Show us your talent, perform Beneath The Burial Surface Tab!

Here you can post a video or audio performance. Tell me more ...
Where can we find your performance? Tell me more ...
Your comment:
Please, log in to post your performance.