Artists by letter: A B C D E F G H I J K L M N O P Q R S T U V W X Y Z 0-9

 
As It Seems Tab
Same pattern all the way through:


[Intro]

  C                                   G
E|-----------------|-----------------|-----------------|-----------------|
B|--------1--------|--------1--------|--------0--------|--------0--------|
G|-----------0-----|-----------0-----|-----------0-----|-----------0-----|
D|-----2--------2--|-----2--------2--|-----0--------0--|-----0--------0--|
A|--3--------------|--3--------------|-----------------|-----------------|
E|-----------------|-----------------|--3--------------|--3--------------|

  D6/F#                                Em
E|-----------------|-----------------|-----------------|-----------------|
B|--------0--------|--------0--------|--------0--------|--------0--------|
G|-----------2-----|-----------2-----|-----------0-----|-----------0-----|
D|-----0--------0--|-----0--------0--|-----2--------2--|-----2--------2--|
A|-----------------|-----------------|-----------------|-----------------|
E|--2--------------|--2--------------|--0--------------|--0--------------|
 

[Verse 1]

  C                                   G
E|-----------------|-----------------|-----------------|-----------------|
B|--------1--------|--------1--------|--------0--------|--------0--------|
G|-----------0-----|-----------0-----|-----------0-----|-----------0-----|
D|-----2--------2--|-----2--------2--|-----0--------0--|-----0--------0--|
A|--3--------------|--3--------------|-----------------|-----------------|
E|-----------------|-----------------|--3--------------|--3--------------|
 
    Well I knew what I                   didn't want to know


  D6/F#                                Em
E|-----------------|-----------------|-----------------|-----------------|
B|--------0--------|--------0--------|--------0--------|--------0--------|
G|-----------2-----|-----------2-----|-----------0-----|-----------0-----|
D|-----0--------0--|-----0--------0--|-----2--------2--|-----2--------2--|
A|-----------------|-----------------|-----------------|-----------------|
E|--2--------------|--2--------------|--0--------------|--0--------------|

  And I saw            where I         didn't want to go


So I took the path less traveled on
And I'll let my stories be whispered when I’m gone...
When I’m gone
When I’m gone
When I’m gone


[Verse 2]

Well in this life you must find something to live for
Cause when the darkness comes a callin'
You'll go back to where you were before
Cause this life is as
Fragile as a dream, and
Nothing’s ever really as it seems...
As it seems
As it seems
As it seems


[Verse 3]

Well I lost my innocence when in I let him dive
But the way that he looked at me
Made me feel alive
And now I know nothin' at all 
But the release that comes when you're in mid fall...
In mid fall
In mid fall
In mid fall


[Verse 4]

Cause in this life you must find something to live for
Cause when the darkness comes a callin'
You'll go back to where you were before
Cause this life is as 
Fragile as a dream, and
Nothing’s ever really as it seems...
As it seems
As it seems
As it seems
 
 
Lily Kershaw - As It Seems Tab :: indexed at Ultimate Guitar.
As It Seems tabs @ 911Tabs
People who played Lily Kershaw - As It Seems Tab also played these songs by Lily Kershaw:
As It Seems Chords, As It Seems Tab, Ashes Like Snow Chords, Like The Sun Chords, Sleep Peacefully Chords, Bathed In Blue Chords

Quick tip, so you can enjoy As It Seems Tab even more:

If you spend just 10 seconds to register, you will be able to comment on all the chords and tabs and rate them. You will as well be able to comment on videos of your fellow guitarists and give them ratings from 1 to 5 ... And - of course - you can share your own videos with them and see what they think of you. :)
Click here to join us!

Show us your talent, perform As It Seems Tab!

Here you can post a video or audio performance. Tell me more ...
Where can we find your performance? Tell me more ...
Your comment:
Please, log in to post your performance.