Artists by letter: A B C D E F G H I J K L M N O P Q R S T U V W X Y Z 0-9

 
Where I Find You Chords
---------------------------------
Where I Find You " Dustin Tebbutt
---------------------------------

Capo 2nd fret             Allow me to expand on this a bit. I've watched 2 videos of Dustin playing this song
                          live and in both he plays different chords with the capo on the 4th fret. However,
                          I've noticed him playing chords used in drop D tuning, as well as playing along
                          with the videos the 2 highest strings sound too high in standard. So, I just moved
                          the capo down to 2nd and figured out the chords from there. So before any of you
                          want to correct me and say "He plays this with the capo on 4!" I know. But this is
                          just another way to play it without having to tune down. 

 Chords:
  F#m11 E Bsus2 Dsus2 A
e|--0---0---0-----0---0-------------|
B|--0---0---0-----3---2-------------|
G|--2---1---4-----2---2-------------|
D|--4---2---4-----0---2-------------|
A|--4---2---2---------0-------------|
E|--2---0---------------------------|

F#m11    E  Bsus2    Bsus2
F#m11    E  Bsus2    Dsus2

F#m11                       E              Bsus2    Bsus2
If I were a geisha, would I find you in my blush?
F#m11                        E              Bsus2    Bsus2
If I were a painter, would I find you in my brush?
F#m11                     E            Bsus2    Dsus2
Ink commits to paper what time will dissolve 
    A               Bsus2    F#m11        E
And all through the world is where I find you

  F#m11                             E  
2nd guitar without capo
e|---11--11--11--11--11--11--11--11--14--14--14--14---|
B|-12--12--12--12--12--12--12--12--12--12--12--12--12-|
G|----------------------------------------------------|
D|----------------------------------------------------|
A|----------------------------------------------------|
E|----------------------------------------------------|

   Bsus2           Bsus2
e|-7-7-7-7-7-7-7-7-7-7-7-7-7-7-7-7--|
B|--9-9-9-9-9-9-9-9-9-9-9-9-9-9-9-9-|
G|----------------------------------|
D|----------------------------------|
A|----------------------------------|
E|----------------------------------|

   F#m11                             E  
e|---11--11--11--11--11--11--11--11--14--14--14--14---|
B|-12--12--12--12--12--12--12--12--12--12--12--12--12-|
G|----------------------------------------------------|
D|----------------------------------------------------|
A|----------------------------------------------------|
E|----------------------------------------------------|

   Bsus2           Dsus2
e|-7-7-7-7-7-7-7-7-7-7-7-7-7-7-7-7-7~--|
B|--9-9-9-9-9-9-9-9-9-9-9-9-9-9-9-9----|
G|-------------------------------------|
D|-------------------------------------|
A|-------------------------------------|
E|-------------------------------------|

F#m11                         E               Bsus2    Bsus2
If I were a preacher, would I find you in the words?
F#m11                         E              Bsus2    Dsus2
If I were a shepherd, would I find you in my herd?
F#m11                         E            Bsus2    Dsus2
Ink commits to paper what the mind will dissolve 
    A               Bsus2    F#m11        E
And all through the world is where I find you

    Dsus2      A
But I won't be long
       Bsus2           F#m11    E
I've a loaded gun, and one last run 
Dsus2      A
I won't be long
          Bsus2         F#m11         Dsus2 A     E
Leave the light on, the light on 'til I get home

  F#m11                             E    
2nd guitar without capo
e|---11--11--11--11--11--11--11--11--14--14--14--14--14--14--14--14---|
B|-12--12--12--12--12--12--12--12--12--12--12--12--12--12--12--12--12-|
G|--------------------------------------------------------------------|
D|--------------------------------------------------------------------|
A|--------------------------------------------------------------------|
E|--------------------------------------------------------------------|

   Bsus2           Dsus2
e|-7-7-7-7-7-7-7-7-7-7-7-7-7-7-7-7--|
B|--9-9-9-9-9-9-9-9-9-9-9-9-9-9-9-9-|
G|----------------------------------|
D|----------------------------------|
A|----------------------------------|
E|----------------------------------|

   F#m11                             E    
e|---11--11--11--11--11--11--11--11--14--14--14--14--14--14--14--14---|
B|-12--12--12--12--12--12--12--12--12--12--12--12--12--12--12--12--12-|
G|--------------------------------------------------------------------|
D|--------------------------------------------------------------------|
A|--------------------------------------------------------------------|
E|--------------------------------------------------------------------|

   Bsus2           Dsus2
e|-7-7-7-7-7-7-7-7-7-7-7-7-7-9-9-7--|
B|--9-9-9-9-9-9-9-9-9-9-9-9-9-9-9-9-|
G|----------------------------------|
D|----------------------------------|
A|----------------------------------|
E|----------------------------------|

   F#m11                             E    
e|---11--11--11--11--11--11--11--11--14--14--14--14--14--14--14--14---|
B|-12--12--12--12--12--12--12--12--12--12--12--12--12--12--12--12--12-|
G|--------------------------------------------------------------------|
D|--------------------------------------------------------------------|
A|--------------------------------------------------------------------|
E|--------------------------------------------------------------------|

   Bsus2           Dsus2
e|-7-7-7-7-7-7-7-7-7-7-7-9-9-9-9-7--|
B|--9-9-9-9-9-9-9-9-9-9-9-9-9-9-9-9-|
G|----------------------------------|
D|----------------------------------|
A|----------------------------------|
E|----------------------------------|

   F#m11                             E    
e|---11--11--11--11--11--11--11--11--14--14--14--14--14--14--14--14---|
B|-12--12--12--12--12--12--12--12--12--12--12--12--12--12--12--12--12-|
G|--------------------------------------------------------------------|
D|--------------------------------------------------------------------|
A|--------------------------------------------------------------------|
E|--------------------------------------------------------------------|

   Bsus2           Dsus2
e|-7-7-7-7-7-7-7-7-7-7-7-7-7-9-9-7--|
B|--9-9-9-9-9-9-9-9-9-9-9-9-9-9-9-9-|
G|----------------------------------|
D|----------------------------------|
A|----------------------------------|
E|----------------------------------|

   A                                    E
e|---11--11--11--11--11--11--11--11--11-9--9--9--9--9--9--9--9--9---|
B|-12--12--12--12--12--12--12--12--12----11-11-11-11-11-11-11-11-11-|
G|------------------------------------------------------------------|
D|------------------------------------------------------------------|
A|------------------------------------------------------------------|
E|------------------------------------------------------------------|

   E                     F#m11
e|-9--9--9--9--9--9--9----7~--|
B|--11-11-11-11-11-11-11-9----|
G|----------------------------|
D|----------------------------|
A|----------------------------|
E|----------------------------|

If you have any corrections, feel free to leave them in the comments. Cheers.
 
 
Dustin Tebbutt - Where I Find You Chords :: indexed at Ultimate Guitar.
Where I Find You tabs @ 911Tabs
People who played Dustin Tebbutt - Where I Find You Chords also played these songs by Dustin Tebbutt:
The Breach Chords, Bones Chords, The Breach Chords, First Light Chords, Plans Chords, First Light Chords

Quick tip, so you can enjoy Where I Find You Chords even more:

After the registration (which takes just 10 seconds, remember?) you will be able to use your profile - your very own piece of YourChords.com.

Show us your talent, perform Where I Find You Chords!

Here you can post a video or audio performance. Tell me more ...
Where can we find your performance? Tell me more ...
Your comment:
Please, log in to post your performance.