Artists by letter: A B C D E F G H I J K L M N O P Q R S T U V W X Y Z 0-9

The One That Really Matters Live Chords - Dustin Smith


 
The One That Really Matters Live Chords
---------------------------------------------------------------------------------------------------------------
                                          Artist - Dustin Smith
                                         ***********************
                                    Song - The One That Really Matters
                                   ************************************
                                 Album - Rushing Waters (Live Worship) (2013)   
                                **********************************************
                                           Tabbed By - Ayreon77
                                          **********************
---------------------------------------------------------------------------------------------------------------
Tuning = Standard

p   = Pull Off
h   = Hammer On
b   = Bend
rb  = Release Bend
rbp = Release Bend Pulloff
br  = Bend Release
brp = Bend Release Pulloff
/   = Slide
UB  = Union Bend


**************
CAPO 2nd FRET
**************

------------------
INTRO
******
F    F    C    C
F    F    C    C

-------------------------------
VERSE 1
********
Am                        Em                   C               
I feel You so close to me I can hardly move or breathe
      Am                            Em                       C
I can feel Your presence all around I fall knees down to the ground

-------------------------------
CHORUS
*******
                           F
You're the one that really matters
                           C
You're the one that really matters
                           F
You're the one that really matters
                           C
You're the one that really matters

-------------------------------
VERSE 2
********
    Am                                Em                          C
And I know that I have been found The cares of life can't hold me down
      Am                                   Em                      C
Cause You're the one I want to please What matters now is what You think

-------------------------------
CHORUS
*******
                           F
You're the one that really matters
                           C
You're the one that really matters
                           F
You're the one that really matters
                           C
You're the one that really matters

-------------------------------
VERSE 3
********
    Am                                Em                          C
And I know that I have been found The cares of life can't hold me down
      Am                                   Em                      C
Cause You're the one I want to please What matters now is what You think

-------------------------------
CHORUS
*******
                           F
You're the one that really matters
                           C
You're the one that really matters
                           F
You're the one that really matters
                           C
You're the one that really matters

                           F
You're the one that really matters
                           C
You're the one that really matters
                           F
You're the one that really matters
                           C
You're the one that really matters

    Am                        Em                   C               
And I feel You so close to me I can hardly move or breathe

-------------------------------
BREAK
******
C Am G C


ELECTRIC GUITAR - Dm F Am G
****************
04:11
e|-----------------------|------------s---s----------s-------------------------------|
B|-----------------3-----|---------3-3\5-5\7-7-7-7-10\---2nd time -------------------|
G|---2-4-4-4-4-4-4---4-4-|-4-4-4-4---------------------6----always do----------------|
D|-4---------------------|-------------------------------------a slight -------------|
A|-----------------------|---------------------------------------bend on that 6 note-|
E|-----------------------|-----------------------------------------------------------|X8

-------------------------------
BRIDGE
****** 
    Dm               F                Am                 G
And I can't help but scream about the way that You moved in
   Dm            F               Am           G
Chaotic love has messed me up so I could live again
    Dm               F                Am                 G
And I can't help but scream about the way that You moved in
   Dm            F               Am           G
Chaotic love has messed me up so I could live again

-------------------------------
CHORUS - Play the guitar below with this section.
*******
                           F
You're the one that really matters
Dm                         Am
You're the one that really matters
G                          Dm
You're the one that really matters
F                          Am
You're the one that really matters

05:47                                                  s     s              
e|-------------------------10-------|-------------10-10\12-12\14-14-14-14-12--b-----|
B|----10-12-12-12-12-12-12----12-12-|-12-12-12-12----------------------------14~~~~-|
G|-11-------------------------------|-----------------------------------------------|
D|----------------------------------|-----------------------------------------------|
A|----------------------------------|-----------------------------------------------|
E|----------------------------------|-----------------------------------------------|X2


06:11 - Dm F Am G X2

e|-------------------------|-------------------------|-------------------------|-----------------|
B|-10-10-10-10-10-10-10-10-|-10-10-10-10-10-10-10-10-|-10-10-10-10-10-10-10-10-|-----------------|
G|-------------------------|-------------------------|-------------------------|-9-9-9-9-9-9-9-9-|
D|-------------------------|-------------------------|-------------------------|-----------------|
A|-------------------------|-------------------------|-------------------------|-----------------|
E|-------------------------|-------------------------|-------------------------|-----------------|X2


06:34
e|-----------------------|------------s---s------------|-----------------------|------------s---s----------s---|
B|-----------------3-----|---------3-3\5-5\7-7-7-7-5-b-|-----------------3-----|---------3-3\5-5\7-7-7-7-10\-b-|
G|---2-4-4-4-4-4-4---4-4-|-4-4-4-4-------------------6-|---2-4-4-4-4-4-4---4-4-|-4-4-4-4---------------------6-|
D|-4---------------------|-----------------------------|-4---------------------|-------------------------------|
A|-----------------------|-----------------------------|-----------------------|-------------------------------|
E|-----------------------|-----------------------------|-----------------------|-------------------------------|

Dm F Am G
06:58                                                  s     s                        
e|-------------------------10-------|-------------10-10\12-12\14-14-14-14-12--b-----|   
B|----10-12-12-12-12-12-12----12-12-|-12-12-12-12----------------------------14~~~~-|   
G|-11-------------------------------|-----------------------------------------------|   
D|----------------------------------|-----------------------------------------------|   
A|----------------------------------|-----------------------------------------------|   
E|----------------------------------|-----------------------------------------------|X2 


 2nd time finish on this     s
e|-------------------12----12\14~~~~~~~-|
B|-14-15-14-15-14-15----15--------------|
G|--------------------------------------|
D|--------------------------------------|
A|--------------------------------------|
E|--------------------------------------|

-------------------------------
CHORUS 
*******
                           F
You're the one that really matters
Dm                         Am
You're the one that really matters
G                          Dm
You're the one that really matters
F                          Am
You're the one that really matters
G                          Dm
You're the one that really matters

You're the one that really matters                         

You're the one that really matters

You're the one that really matters

You're the one that really matters


ENJOY...........
 
 
Dustin Smith - The One That Really Matters Live Chords :: indexed at Ultimate Guitar.
The One That Really Matters Live tabs @ 911Tabs
People who played Dustin Smith - The One That Really Matters Live Chords also played these songs by Dustin Smith:
Never Ending Flood Chords, Eyes Like Fire Chords, The Great I Am Chords, God Who Moves The Mountains Chords, Yahweh Chords, The Great I Am

Quick tip, so you can enjoy The One That Really Matters Live Chords even more:

If you don't really know how to deal with "Absus4" chord and his equally confusing brothers, just put the mouse cursor over them and you will be shown a helpful chord diagram.

Show us your talent, perform The One That Really Matters Live Chords!

Here you can post a video or audio performance. Tell me more ...
Where can we find your performance? Tell me more ...
Your comment:
Please, log in to post your performance.