Artists by letter: A B C D E F G H I J K L M N O P Q R S T U V W X Y Z 0-9

 
Inside Out Tab
Inside Out by Duster (1998)

Tuning: GF#CFAC# (standard lowered a full step down, with the first and fifth 
strings lowered an extra half-step)



Intro:
C#|---------------------------------------------------------------------------|
A |---------------------------------------------------------------------------|
F |-4-4-4-4-4-4-4-4---4-4-4-4-4-4-4-4---8-8-8-8-8-8-8-8-8-8-8-8-8-8-8-8-------|
C |-4-4-4-4-4-4-4-4---4-4-4-4-4-4-4-4---6-6-6-6-6-6-6-6-6-6-6-6-6-6-6-6-------|
F#|-3-3-3-3-0-0-2-2---3-3-3-3-0-0-2-2---5-7-7-7-7-7-7-7-7-7-7-5-7-7-7-5-------|
G |---------------------------------------------------------------------------|

C#|---------------------------------------------------------------------------|
A |---------------11-11-11-11-11-11-11-11-11-11-11-11-11-11-11-11-------------|
F |-11-11-11------8--8--8--8--8--8--8--8--8--8--8--8--8--8--8--8--------------|
C |--9--9--9------9--9--9--9--9--9--9--9--9--9--9--9--9--9--9--9--------------|
F#|-10-10-10------------------------------------------------------------------|
G |---------------------------------------------------------------------------|
             R
C#|---------------------------------------------------------------------------|
A |---------------------------------------------------------------------------|
F |-8-8-8-8-8-8-8-8-8-8-8-8-8-8-8-----11-11-11-11-----------------------------|
C |-6-6-6-6-6-6-6-6-6-6-6-6-6-6-6------9--9--9--9-----------------------------|
F#|-0-0-0-0-0-0-0-0-0-0-0-0-0-0-7------8--8--8--8-----------------------------|
G |---------------------------------------------------------------------------|
                                  R
Verse:

      Will I be able 
            to speak      after a stiff drink?
C#|---------------------------------------------------------------------------|
A |---------------------------------------------------------------------------|
F |-4-4-4-4-4-4-4-4-4-4-4-4-4-4-4-----8-8-8-8-8-8-8-8-8-8-8-8-8-8-8-8b--------|
C |-4-4-4-4-4-4-4-4-4-4-4-4-4-4-4-----6-6-6-6-6-6-6-6-6-6-6-6-6-6-6-6---------|
F#|-3-3-3-3-3-3-3-3-3-3-3-3-3-3-3p0---7-7-7-7-7-7-7-7-7-7-7-7-7-7-7-7---------|
G |---------------------------------------------------------------------------|

                        Would it break my panic?
C#|---------------------------------------------------------------------------|
A |---------------------------------------------------------------------------|
F |-11-11-11-11---11-11-11-11-11-11-11-11-11-11-11-11-11-11-11-11-------------|
C |--9--9--9--9----8--8--8--8--8--8--8--8--8--8--8--8--8--8--8--8-------------|
F#|--0-10-10-10---10-10-10-10-10-10-10-10-10-10-10-10-10-10-10-10-------------|
G |---------------------------------------------------------------------------|

         Make the sweat stop 
                 pouring out?
C#|---------------------------------------------------------------------------|
A |---------------------------------------------------------------------------|
F |-8-8-8-8-8-8-8-8-8-8-8-8-8-8-8-8---11-11-11-11-----------------------------|
C |-6-6-6-6-6-6-6-6-6-6-6-6-6-6-6-6----9--9--9--9-----------------------------|
F#|-0-0-0-0-0-0-0-7-0-0-0-0-0-0-0-5----8--8--8--8-----------------------------|
G |---------------------------------------------------------------------------|

          Slow and deliberate               with her words
C#|---------------------------------------------------------------------------|
A |-0-0-2-2-2-2-2-2-0-0-2-2-2-2-2-2-------------------------------------------|
F |-4-4-4-4-4-4-4-4-4-4-4-4-4-4-4-4---8-8-8-8-8-8-8-8-8-8-8-8-8-8-8-8---------|
C |-4-4-4-4-4-4-4-4-4-4-4-4-4-4-4-4---6-6-6-6-6-6-6-6-6-6-6-6-6-6-6-6---------|
F#|-3-3-3-3-3-3-3-3-3-3-3-3-3-3-3-3---7-7-7-7-7-7-7-7-7-7-7-7-7-7-7-5---------|
G |---------------------------------------------------------------------------|

                       She'll walk through  
C#|---------------------------------------------------------------------------|
A |---------------------------------------------------------------------------|
F |-11-11-11-11---11-11-11-11-11-11-11-11-11-11-11-11-11-11-11-11-------------|
C |--9--9--9--9----8--8--8--8--8--8--8--8--8--8--8--8--8--8--8--8-------------|
F#|--0--0--0--0---10-10-10-10-10-10-10-10-10-10-10-10-10-10-10-10-------------|
G |---------------------------------------------------------------------------|

        my heart
C#|---------------------------------------------------------------------------|
A |---------------------------------------------------------------------------|
F |-8-8-8-8-8-8-8-8-8-8-8-8-8-8-8----11-11-11-11------------------------------|
C |-6-6-6-6-6-6-6-6-6-6-6-6-6-6-6-----9--9--9--9------------------------------|
F#|-0-0-0-0-0-0-0-0-0-0-0-0-7-7-7-----0--0--0--0------------------------------|
G |---------------------------------------------------------------------------|
                                  R
        Those eyes light 
                  a fire                      In my stomach
C#|---------------------------------------------------------------------------|
A |-0-0-2-2-2-2-2-2-0-0-2-2-2-2-2-2-------------------------------------------| 
F |-4-4-4-4-4-4-4-4-4-4-4-4-4-4-4-4---8-8-8-8-8-8-8-8-8-8-8-8-8-8-8-8---------|
C |-4-4-4-4-4-4-4-4-4-4-4-4-4-4-4-4---6-6-6-6-6-6-6-6-6-6-6-6-6-6-6-6---------|
F#|-3-3-3-3-3-3-3-3-3-3-3-3-3-3-3-3---7-7-7-7-7-7-7-7-7-7-7-7-7-7-7-5---------|
G |---------------------------------------------------------------------------|

                   Fall          apart
C#|---------------------------------------------------------------------------|
A |---------------2-2-2-2-2-2-0-2-2-0-0-2-0-0-0-0-----------------------------|
F |-11-11-11-11- -4-4-4-4-4-4-4-4-4-4-4-4-4-4-4-4-----------------------------|
C |--9--9--9--9---4-4-4-4-4-4-4-4-4-4-4-4-4-4-4-4-----------------------------|
F#|--0--0--0--0---3-3-3-3-3-3-3-3-3-3-3-3-3-3-3-3-----------------------------|
G |---------------------------------------------------------------------------|

          From  the  inside  out
C#|---------------------------------------------------------------------------|
A |---------------------------------------------------------------------------|
F |-8-8-8-8-8-8-8-8-8-8-8-8-8-8-8-----11-11-11-11-----------------------------|
C |-6-6-6-6-6-6-6-6-6-6-6-6-6-6-6------9--9--9--9-----------------------------|
F#|-0-0-0-0-0-0-0-0-0-0-0-0-0-0-0------8--8--8--8-----------------------------|
G |---------------------------------------------------------------------------|
                                  R
Outro:

C#|---------------------------------------------------------------------------|
A |-2-2-0-0-0-2-2-2-2-0-0-0-0-2-2---------------------------------------------|
F |-4-4-4-4-4-4-4-4-4-4-4-4-4-4-4-----8-8-8-8-8-8-8-8-8-8-8-8-8-8-8-8---------|
C |-4-4-4-4-4-4-4-4-4-4-4-4-4-4-4-----6-6-6-6-6-6-6-6-6-6-6-6-6-6-6-6---------|
F#|-3-3-3-3-3-3-3-3-3-3-3-3-3-3-3-----7-7-7-7-7-7-7-7-7-7-7-7-7-7-7-5---------|
G |---------------------------------------------------------------------------|
                                  R
C#|---------------------------------------------------------------------------|
A |---------------------------------------------------------------------------|
F |-11-11-11-11---11-11-11--9--9--9--9-11-11-11-11-11-11-11-11-11-------------|
C |--9--9--9--9----8--8--8--8--8--8--8--8--8--8--8--8--8--8--8--8-------------|
F#|--0--0--0--0---10-10-10-10-10-10-10-10-10-10-10-10-10-10-10-10-------------|
G |---------------------------------------------------------------------------|

C#|---------------------------------------------------------------------------|
A |---------------------------------------------------------------------------|
F |-8-8-8-8-8-8-8-8-8-8-8-8-8-------------------------------------------------|
C |-6-6-6-6-6-6-6-6-6-6-6-6-6-------------------------------------------------|
F#|-0-0-0-0-0-0-0-0-0-0-0-0-8-------------------------------------------------|
G |---------------------------------------------------------------------------|

And let that last chord ring...

************************************

b=bend
p=pull off
R=Rest
 
 
Duster - Inside Out Tab :: indexed at Ultimate Guitar.
Inside Out tabs @ 911Tabs
People who played Duster - Inside Out Tab also played these songs by Duster:
Echo Bravo Tab, The Breakup Suite Tab, Shadows Of Planes Tab, Constellations Tab, Queen Of Hearts Tab, Gold Dust Tab

Quick tip, so you can enjoy Inside Out Tab even more:

If you spend just 10 seconds to register, you will be able to comment on all the chords and tabs and rate them. You will as well be able to comment on videos of your fellow guitarists and give them ratings from 1 to 5 ... And - of course - you can share your own videos with them and see what they think of you. :)
Click here to join us!

Show us your talent, perform Inside Out Tab!

Here you can post a video or audio performance. Tell me more ...
Where can we find your performance? Tell me more ...
Your comment:
Please, log in to post your performance.