Artists by letter: A B C D E F G H I J K L M N O P Q R S T U V W X Y Z 0-9

 
This Is The Life Chords
Dream Theater " This Is the Life
Tabbed by Daloonik [email protected]

 INTRO
e|--------------------------------------------------------------|
B|---0--------0--------0------------0----0--------0-------0-----|
G|-----0-2------0-2------0-2----2-0--------0-2------0-2-----0-2-|
D|--------------------------------------------------------------|
A|-------------------------------------0--------0-------4-------|
E|-0--------0--------0--------3---------------------------------|

e|--------------------------------------------------------------|
B|------------0--------0-------0--------------0---0-------0-----|
G|---2-0--------0-2------0-2-----0-2------0-2-------0-2-----0-2-|
D|--------------------------------------4-----------------------|
A|-4--------------------------------------------0-------0-------|
E|-------3--0--------0-------0--------3-------------------------| 

e|--------------------|
B|---0----------------|
G|-----0-2----2-0-----|
D|--------------------|
A|-4--------4---------|
E|----------------3---|    
Em  D  Am Bm C F B7

Em                         A             
In the heart of your most solemn barren night
Em                             A 
When your soul's turned inside out
Em                          A           
Have you questioned all the madness you invite?
Em                    A 
What your life is all about
D                          C      Am  G
Some of us choose to live gracefully
D               G           C    Am
Some can get caught in the maze
                   G
And lose their way home
                     D
This is the life we belong to
    B7       Em
Our gift divine

Interlude: Em D Am Bm C  G F  B7

Em                         A
Have you ever wished that you were someone else?
Em                     A
Traded places in your mind
                           D
It's only a waste of your time
D                          C      Am  G
Some of us choose to live gracefully
D                           C    Am
Some can get caught in the maze
                    G
And lose their way home
                     D
This is the life we belong to
    B7      C
Our gift divine

Interlude:
C C/B D C C/B D D/F#

C                     D 
Feed the illusion you dream about
C                       D
Cast out the monsters inside
Am                   Em    F
Life begins with an empty slate
Dm      Dm/C                  Bb
Fragile left in the hands of fate
Gm         Am       Dm         Gm
Driven by love and crushed by hate
 C         Cm7     D7      Eb
Until the day the gift is gone
      Cm      D
And shadows remain

Guitar Solo
Em Bm C Am Em B Am

D                           C    Am
Some of us choose to live gracefully
D                           C   Am
Some can get caught in the maze
                    Em
And lose their way home
  A7          F#m7b5
Memories will fade
B7         C
Time races on
Am              D/F#              G
What will they say after you're gone?
G                     D
This is the life we belong to
      B7   Em
Our gift divine
          C     F  B7
Our gift divine

(Intro chords)
 
 
Dream Theater - This Is The Life Chords :: indexed at Ultimate Guitar.
This Is The Life tabs @ 911Tabs

Quick tip, so you can enjoy This Is The Life Chords even more:

Try out the AutoScroller option ... It scrolls the page for you, so you can totally focus on nailing that solo. You can choose among different speeds using your mouse or your keyboard (keys 0, 1, 2 and 3).

Show us your talent, perform This Is The Life Chords!

Here you can post a video or audio performance. Tell me more ...
Where can we find your performance? Tell me more ...
Your comment:
Please, log in to post your performance.