Artists by letter: A B C D E F G H I J K L M N O P Q R S T U V W X Y Z 0-9

Shocker On Shock Street Tab (ver 2) - Dr. Acula


 
Shocker On Shock Street Tab
-------------------------------------------------------------------------------
                             Shock On Shock Street - Dr. Acula
-------------------------------------------------------------------------------
Tabbed by: JHEEZAY
Email: [email protected]

Tuning: Drop C

strum the strings all the way up on the sliding part. sounds better.
D|---------------------------------------------------------|
A|---------------------------------------------------------|
F|-5/15----------9------9------9------9--------------------|
C|-4/14--X2------8------8------8------8--------------------|
G|-3/13-----0-00-7-0-00-7-0-00-7-0-00-7--------------------|
C|----------0-00---0-00---0-00---0-00----------------------|
            . ..   . ..   . ..   . ..

D|--------------------------------------------------------------------------|
A|--------------------------------------------------------------------------|
F|-5/15----------9------9------9--------------------------------------------|
C|-4/14--X2------8------8------8-------------------1-1-1--------------1-1-1-|
G|-3/13-----0-00-7-0-00-7-0-00-7-0----0-0-00-0-0-0-x-x-x-0-0-00-0-0-0-x-x-x-|
C|----------0-00---0-00---0-00---0----0-0-00-0-0-0-1-1-1-0-0-00-0-0-0-1-1-1-|
            . ..   . ..   . ..   .    . . .. . . . . . . . . .. . . . . . .

D|----------------------------------------|
A|----------------------------------------|
F|-9\7----13\12/13/14\13/14---------------|  
C|-8\6-X8-12\11/12/13\12/13--X2-----------|
G|-7\5----11\10/11/12\11/12---------------|
C|----------------------------------------|

D|------------------------------------------------|
A|------------------------------------------------| \
F|-9\7--------------------------------------------|  \ do this X2
C|-8\6-X8-----------------------------------------|  /
G|-7\5-----4-3-1-3--4-3-1--4-3-1-3--4-3-1---------| /
C|---------4-3-1-3--4-3-1--4-3-1-3--4-3-1---------|
           . . . .  . . .  . . . .  . . .

BREAKDOWN you can figure out the beat.
D|-------------------------------------------------------------|
A|-------------------------------------------------------------|\
F|--------------------------------------------------------*5~--| \ x4
C|-------------------------------------------------------------| /
G|--0--0--0----0-0-000-00---0-0-000-0--2-1-3-2-4-3-5-4---------|/
C|--0--0--0----0-0-000-00---0-0-000-0--2-1-3-2-4-3-5-4---------|
    .  .  .    . . ... ..   . . ... .  . . . . . . . .

D|-------------------------------------|
A|-------------------------------------| \
F|--77777----------77777---------------|  \ x2
C|--77777----------77777---------------|  /
G|--55555-55555555-55555-55555555------| /
C|--------55555555-------55555555------|

D|-----------------------------|
A|-----------------------------|\
F|-----------------------------| \ x7
C|-----------------------------| /
G|---------6666655555----------|/
C|---555555----------444444----|

END OF SONG

www.myspace.com/jamiexasc

| /  slide up
| \  slide down
| h  hammer-on
| p  pull-off
| ~  vibrato
| +  harmonic
| x  Mute note
===============================================================================
 
 
Dr. Acula - Shocker On Shock Street Tab :: indexed at Ultimate Guitar.
Shocker On Shock Street tabs @ 911Tabs

Quick tip, so you can enjoy Shocker On Shock Street Tab even more:

After the registration (which takes just 10 seconds, remember?) you will be able to use your profile - your very own piece of YourChords.com.

Show us your talent, perform Shocker On Shock Street Tab!

Here you can post a video or audio performance. Tell me more ...
Where can we find your performance? Tell me more ...
Your comment:
Please, log in to post your performance.