Artists by letter: A B C D E F G H I J K L M N O P Q R S T U V W X Y Z 0-9

I Keep Writing Songs For People Ill Never Know Tab - Dandelion Hands


 
I Keep Writing Songs For People Ill Never Know Tab
[Whole Song]


e|------2--------------|
B|---3-----3-----3-----|
G|------------2--------|
D|-0---0---------------| x2
A|---------------------|
E|---------------------|     
                                                                    (repeat as needed)
e|-/7------7-------------/9--------9-----------------|
B|-/8---8-----8-----8----/10---10-----10-------10----|
G|-/7------------7-------/9----------------9---------|
D|----0---0------------------0---0-------------------|
A|---------------------------------------------------|
E|---------------------------------------------------|


[Ending Chord]

e|-2---------------------------------|
B|-2---------------------------------|
G|-2---------------------------------|
D|-0---------------------------------|
A|-----------------------------------|
E|-----------------------------------|



************************************

| /  Slide up

************************************
 
 
Dandelion Hands - I Keep Writing Songs For People Ill Never Know Tab :: indexed at Ultimate Guitar.
I Keep Writing Songs For People Ill Never Know tabs @ 911Tabs
People who played Dandelion Hands - I Keep Writing Songs For People Ill Never Know Tab also played these songs by Dandelion Hands:
I Like You Chords, Self Harmageddon Chords, My Incredibly Nerdy Cute Little Lady Chords, My Friends Dont Know I Know They Hate Me, Its Okay Chords, I Like You

Quick tip, so you can enjoy I Keep Writing Songs For People Ill Never Know Tab even more:

You might want to transpose the song if it is too high or too low for you to sing. Just click the desired option while playing a song and all the chords will automatically be transponded into a new key.

Show us your talent, perform I Keep Writing Songs For People Ill Never Know Tab!

Here you can post a video or audio performance. Tell me more ...
Where can we find your performance? Tell me more ...
Your comment:
Please, log in to post your performance.