Artists by letter: A B C D E F G H I J K L M N O P Q R S T U V W X Y Z 0-9

 
Senor Limpio Tab
[Intro]

D|-------------------------------------------------------|
A|-------------------------------------------------------|
F|-------------------------------------------------------|
C|-------------------------------------------------------|
G|--------------5b---------------------------------------|
C|--0--0-0-3b-0----0-6-5----0--0-0-3b-0-0----0//17\\0----|
       . .                     . .       


[Verse]

D|-------------------------------------------------------|
A|-------------------------------------------------------|
F|-------------------------------------------------------|
C|-------------------------------------------------------|
G|--------------5b---------------------------------------|
C|--0--0-0-3b-0----0-6-5----0--0-0-3b-0-0---0-3-0-3*b----|
       . .                     . .      .   . . .

D|-------------------------------------------------------|
A|-------------------------------------------------------|
F|-------------------------------------------------------|
C|-------------------------------------------------------|
G|--------------5b---------------------------------------|
C|--0--0-0-3b-0----0-6-5----0--0-0-3b-0-0----------------|
       . .                     . .      .    

D|-------------------------------------------------------|
A|-------------------------------------------------------|
F|-------------------------------------------------------|
C|-------------------------------------------------------|
G|--------------5b---------------------------------------|
C|--0--0-0-3b-0----0-6-5----0--0-0-3b-0-0---0-3-0-3*b----|
       . .                     . .          . . .

D|-------------------------------------------------------|
A|-------------------------------------------------------|
F|-------------------------------------------------------|
C|-------------------------------------------------------|
G|--------------5b---------------------------------------|
C|--0--0-0-3b-0----0-6-5----0--0-0-3b-0-0----------------|


[Bridge]

D|--------------------------------------------------------------------------------------------|
A|--------------------------------------------------------------------------------------------|
F|--------------------------------------------------------------------------------------------|
C|-------------------<3>---------------------------------------<3>----------------<5>b7r<5>---|
G|-3h5-5-5-3h5-5-5-5-----3h5-5-5-3h5p3-------3h5-5-5-3h5-5-5-5-------3h5-5-5-3h5p3------------|
C|-------------------------------------6-5-3--------------------------------------------------|


[Chorus]

D|---------------------------------------------------------------------------|
A|---------------------------------------------------------------------------|
F|---------------------------------------------------------------------------|
C|-5/3-5-5-5/3-5-5-5/3-5-5-5/3-5-5-0-0-0h3-0-0-0h5-0-0-0h3-6-5-3-------------|
G|-5/3-5-5-5/3-5-5-5/3-5-5-5/3-5-5-0-0-0h3-0-0-0h5-0-0-0h3-6-5-3-------------|
C|-5/3-5-5-5/3-5-5-5/3-5-5-5/3-5-5-0-0-0h3-0-0-0h5-0-0-0h3-6-5-3-------------|



************************************

| h  Hammer-on
| p  Pull-off
| >  Accented note
| b  Bend
| /  Slide up
| \  Slide down
|<>  Harmonic
| .  Palm mute

************************************
 
 
Corrosion Of Conformity - Senor Limpio Tab :: indexed at Ultimate Guitar.
Senor Limpio tabs @ 911Tabs
People who played Corrosion Of Conformity - Senor Limpio Tab also played these songs by Corrosion Of Conformity:
Stare Too Long Chords, Shelter Chords, Stare Too Long Tab, Albatross Tab, In The Arms Of God Tab, Clean My Wounds Tab

Quick tip, so you can enjoy Senor Limpio Tab even more:

After the registration (which takes just 10 seconds, remember?) you will be able to use your profile - your very own piece of YourChords.com.

Show us your talent, perform Senor Limpio Tab!

Here you can post a video or audio performance. Tell me more ...
Where can we find your performance? Tell me more ...
Your comment:
Please, log in to post your performance.