Artists by letter: A B C D E F G H I J K L M N O P Q R S T U V W X Y Z 0-9

 
Broken Man Tab
[Intro and Verse] 

d|---------------------------------------------------------------------------|
A|---------------------------------------------------------------------------|
F|---------------------------------------------------------------------------|
C|-3p2p0h2-2-2h3p2-2h3p2-0-3p2p0h2-2h3-2-0-0---------------------------------|
G|-3p2p0h2-2-2h3p2-2h3p2-0-3p2p0h2-2h3-2-0-0---------------------------------|
C|-3p2p0h2-2-2h3p2-2h3p2-0-3p2p0h2-2h3-2-0-0---------------------------------|


[Chorus] 

[LEAD GUITAR] [Woody]

d|---------------------------------------------------------------------------|
A|---------------------------------------------------------------------------|
F|-----------9-7-6/7-----------11-9-7/9--------------------------------------|
C|-7/9-9-7/9---------7/9-9-7/9-----------------------------------------------|
G|---------------------------------------------------------------------------|
C|---------------------------------------------------------------------------|

[RHYTHM] [Pepper]

d|---------------------------------------------------------------------------|
A|---------------------------------------------------------------------------|
F|------------9-7-6/7-------------11-9-7/9-----------------------------------|
C|-7/9-9-7/9--9-7-6/7--7/9-9-7/9--11-9-7/9-----------------------------------|
G|-7/9-9-7/9--7-5-4/5--7/9-9-7/9--9--7-5/7-----------------------------------|
C|-7/9-9-7/9-----------7/9-9-7/9---------------------------------------------|


[Bridge]

d|---------------------------------------------------------------------------|
A|---------------------------------------------------------------------------|
F|---------------------------------------------------------------------------|
C|-5/7-7-7/10-12-12-12/10-10/5-----------------------------------------------|
G|-5/7-7-7/10-12-12-12/10-10/5-----------------------------------------------|
C|-5/7-7-7/10-12-12-12/10-10/5-----------------------------------------------|

Then after solo ends
     
                          x3
d||-------------------------||--------------------------------------------------|
A||-------------------------||--------------------------------------------------|
F||-------------------------||--------------------------------------------------|
C||-5/7-7-5/7-7-5/7-7-X-10--||-5/7-7-5-3-3-3-3-2--------------------------------|
G||-5/7-7-5/7-7-5/7-7-X-10--||-5/7-7-5-3-3-3-3-2--------------------------------|
C||-5/7-7-5/7-7-5/7-7-X-10--||-5/7-7-5-3-3-3-3-2--------------------------------|



************************************

| h  Hammer-on
| p  Pull-off
| /  Slide up
| X  Dead note

************************************
 
 
Corrosion Of Conformity - Broken Man Tab :: indexed at Ultimate Guitar.
Broken Man tabs @ 911Tabs
People who played Corrosion Of Conformity - Broken Man Tab also played these songs by Corrosion Of Conformity:
Stare Too Long Chords, Shelter Chords, Stare Too Long Tab, Albatross Tab, In The Arms Of God Tab, Clean My Wounds Tab

Quick tip, so you can enjoy Broken Man Tab even more:

You might want to transpose the song if it is too high or too low for you to sing. Just click the desired option while playing a song and all the chords will automatically be transponded into a new key.

Show us your talent, perform Broken Man Tab!

Here you can post a video or audio performance. Tell me more ...
Where can we find your performance? Tell me more ...
Your comment:
Please, log in to post your performance.