Artists by letter: A B C D E F G H I J K L M N O P Q R S T U V W X Y Z 0-9

 
Broken Man Tab
[INTRO/VERSE]

d|-------------------------------------------------------------|
A|-------------------------------------------------------------|
F|-------------------------------------------------------------|
C|-------------------------------------------------------------|
G|-8-7-5-7-7---7-8-7---7-8-7-5------8-7-5-7-7-8---7br---5------|
D|-8-7-5-7-7---7-8-7---7-8-7-5------8-7-5-7-7-8---7br---5------|


[CHORUS]

d|-------------------------------------------------------------|
A|-------------------------------------------------------------|
F|-------------------------------------------------------------|
C|-------------------------------------------------------------|
G|-----------------7---5---5h7-----------------9---7---7-5h7p5-|
D|-5h7-7-7-7-7"5h7-------------5h7-7-7-7-7"5h7-----------------|


[CHORUS end]

d|------------------|
A|------------------|
F|------------------|
C|------------------|
G|-5h7-7-7-7---/----|
D|-5h7-7-7-7---/----|


[BRIDGE pt1]

d|------------------------------------|
A|------------------------------------|
F|------------------------------------|
C|------------5---7----7-7\5--4/5\4---|
G|--5/7-7-7-7-3---5----5-5\3--2/3\2---|
D|--3/5-5-5-5-------------------------|


[BRIDGE pt2]

d|-----------------------------------------------|
A|-----------------------------------------------|
F|-----------------------------------------------|
C|--5h7-7-7--XX5h7-7-7--XX5h7-7-7----XX/7--5-----|x3
G|--5h7-7-7--XX5h7-7-7--XX5h7-7-7----XX/5--3-----|
D|--5-----5--XX5-----5--XX5-----5----------------|

d|----------------------------------------|
A|----------------------------------------|
F|----------------------------------------|
C|--5h7-7-7---7-5-------------------------|
G|--5h7-7-7---7-5-7-5---7-7---7\5--5\4----|
D|--5-----5-------7-3---5-5---5\3--3\2----|


[Verse]

Deep in the soul of a man whose seen it all
He stands alone with borrowed time
Dealing with two nothings new but the look at you
With broken backs and bleeding minds
And tell you they now even though you fall behind
You'll be the one who walks the line-standing tall
They're so fragile, but they always find you when you hide...


[Chorus]

Cause your a broken man in a broken land
And don't they wish they were blessed like you


[Verse]

The struggle in side of your mind is a waste of time
Purest thoughts evaporate
Dark clouds reveal how you feel in your idle time
Your own tail becomes the bait
You don't even know even though your blood flows
Destroy yourself, your the one you hate-standing tall
They're so fragile, but they always catch you when you're late...


[Chorus]

Cause your a broken man in a broken land
And don't they wish they were blessed like you


[Bridge]

Standing tall they look so small with your world up their shoulders
But a broken man on broken land looks far beyond his bothers...

Break for the sun your the one, the chosen one,
Your time is up yor time is due
Craked like a whip from the hand of a broken man
To find out that he's just like you
But you've seen it all in your mind,
You've seen it all you built it up and they made it fall
Because your killing yourself-your so fragile,
But they cannot crush you if you don't crawl..

Now I'm a broken man in a broken land
Now I'm a broken man in a broken land...

And don't they wish they were blessed like you
And don't they wish they were blessed like you
And don't they wish they were blessed like you
And don't they wish they were blessed like you
And don't they wish they were blessed like you
And don't they wish they were blessed like you


************************************

| h   Hammer-on
| p   Pull-off
| br  Bend release
| /   Slide up
| \   Slide down
| XX  Dead Note

************************************
 
 
Corrosion Of Conformity - Broken Man Tab :: indexed at Ultimate Guitar.
Broken Man tabs @ 911Tabs
People who played Corrosion Of Conformity - Broken Man Tab also played these songs by Corrosion Of Conformity:
Stare Too Long Chords, Shelter Chords, Stare Too Long Tab, Albatross Tab, In The Arms Of God Tab, Clean My Wounds Tab

Quick tip, so you can enjoy Broken Man Tab even more:

YourChords.com Guitar Chords and Tabs Archive is currently indexing over 240'000 songs from 21'000+ different artists. And new chords just keep on coming in, so you will surely never run out of them.

Show us your talent, perform Broken Man Tab!

Here you can post a video or audio performance. Tell me more ...
Where can we find your performance? Tell me more ...
Your comment:
Please, log in to post your performance.