Artists by letter: A B C D E F G H I J K L M N O P Q R S T U V W X Y Z 0-9

 
Superman Tonight Tab
SUPERMAN TONIGHT

As recorded by Bon Jovi 
(From the 2009 Album THE CIRCLE)

Words and Music by Jon Bon Jovi, Richie Sambora & Billy Falcon

Transcribed by Slowhand


Gtr I (E A D G B E) - 'Richie Sambora - Electric Guitar (Distortion)'
Gtr II (E A D G B E) - 'Richie Sambora - Elecric Guitar (Clean)'
Gtr III (E A D G B E) - 'Jon Bon Jovi - Acoustic Guitar'
Gtr IV (E A D G B E) - 'Richie Sambora - Electric Guitar (Clean)'
Gtr V (E A D G B E) - 'Richie Sambora - Electric Guitar (Overdriven)'


 Intro
  Q=132
  N.C.
 4/4
  Gtr IV (Clean El. Gtr. w/ delay & reverb)
  E E E E E E E E   E E E E E E E E   E E E E E E E E   E E E E E E E E
|-----------------|-----------------|-----------------|-----------------|
|-8-8-8-8-8-8-8-8-|-8-8-8-8-8-8-8-8-|-8-8-8-8-8-8-8-8-|-8-8-8-8-8-8-8-8-|
|-----------------|-----------------|-----------------|-----------------|
|-----------------|-----------------|-----------------|-----------------|
|-----------------|-----------------|-----------------|-----------------|
|-----------------|-----------------|-----------------|-----------------|


  E E E E E E E E   E E E E E E E E   E E E E E E E E   E E E E E E E E
|-----------------|-----------------|-----------------|-----------------||
|-8-8-8-8-8-8-8-8-|-8-8-8-8-8-8-8-8-|-----------------|-----------------||
|-----------------|-----------------|-9-9-9-9-9-9-9-9-|-9-9-9-9-9-9-9-9-||
|-----------------|-----------------|-----------------|-----------------||
|-----------------|-----------------|-----------------|-----------------||
|-----------------|-----------------|-----------------|-----------------||


 1st Verse
  N.C.
  E E E E E E E E   E E E E E E E E   E E E E E E E E   E E E E E E E E
|-----------------|-----------------|-----------------|-----------------|
|-8-8-8-8-8-8-8-8-|-8-8-8-8-8-8-8-8-|-----------------|-----------------|
|-----------------|-----------------|-9-9-9-9-9-9-9-9-|-9-9-9-9-9-9-9-9-|
|-----------------|-----------------|-----------------|-----------------|
|-----------------|-----------------|-----------------|-----------------|
|-----------------|-----------------|-----------------|-----------------|


  E E E E E E E E   E E E E E E E E   E E E E E E E E   E E E E E E E E
|-----------------|-----------------|-----------------|-----------------||
|-8-8-8-8-8-8-8-8-|-8-8-8-8-8-8-8-8-|-----------------|-----------------||
|-----------------|-----------------|-9-9-9-9-9-9-9-9-|-9-9-9-9-9-9-9-9-||
|-----------------|-----------------|-----------------|-----------------||
|-----------------|-----------------|-----------------|-----------------||
|-----------------|-----------------|-----------------|-----------------||


 2nd Verse
  G                                      Cadd9
  Gtr II (Clean El. Gtr.)
   W                 +W                   W                 +W
|-^3---------------|-(3)---------------|-^3---------------|-(3)---------------|
|-^3---------------|-(3)---------------|-^3---------------|-(3)---------------|
|-^0---------------|-(0)---------------|-^0---------------|-(0)---------------|
|-^0---------------|-(0)---------------|-^2---------------|-(2)---------------|
|-^2---------------|-(2)---------------|-^3---------------|-(3)---------------|
|-^3---------------|-(3)---------------|------------------|-------------------|
|
| Gtr III (Ac. Gtr.)
|  W                 +W                   W                 +W
|--3---------------|-(3)---------------|--3---------------|-(3)---------------|
|--3---------------|-(3)---------------|--3---------------|-(3)---------------|
|--0---------------|-(0)---------------|--0---------------|-(0)---------------|
|--0---------------|-(0)---------------|--2---------------|-(2)---------------|
|--2---------------|-(2)---------------|--3---------------|-(3)---------------|
|--3---------------|-(3)---------------|------------------|-------------------|
|
| Gtr IV
|  E E E E E E E E    E  E E E E E E E    E E E E E E E E    E  E E E E E E E
|------------------|-------------------|------------------|-------------------|
|--8-8-8-8-8-8-8-8-|--8--8-8-8-8-8-8-8-|------------------|-------------------|
|------------------|-------------------|--9-9-9-9-9-9-9-9-|--9--9-9-9-9-9-9-9-|
|------------------|-------------------|------------------|-------------------|
|------------------|-------------------|------------------|-------------------|
|------------------|-------------------|------------------|-------------------|


  Em7                                    Cadd9
   W                 +W                   W                 +W
|-^0---------------|-(0)---------------|-^3---------------|-(3)---------------||
|-^0---------------|-(0)---------------|-^3---------------|-(3)---------------||
|-^0---------------|-(0)---------------|-^0---------------|-(0)---------------||
|-^0---------------|-(0)---------------|-^2---------------|-(2)---------------||
|-^2---------------|-(2)---------------|-^3---------------|-(3)---------------||
|-^0---------------|-(0)---------------|------------------|-------------------||
|
|  W                 +W                   W                 +W
|--0---------------|-(0)---------------|--3---------------|-(3)---------------||
|--0---------------|-(0)---------------|--3---------------|-(3)---------------||
|--0---------------|-(0)---------------|--0---------------|-(0)---------------||
|--0---------------|-(0)---------------|--2---------------|-(2)---------------||
|--2---------------|-(2)---------------|--3---------------|-(3)---------------||
|--0---------------|-(0)---------------|------------------|-------------------||
|
|  E E E E E E E E    E  E E E E E E E    E E E E E E E E    E  E E E E E E E
|------------------|-------------------|------------------|-------------------||
|--8-8-8-8-8-8-8-8-|--8--8-8-8-8-8-8-8-|------------------|-------------------||
|------------------|-------------------|--9-9-9-9-9-9-9-9-|--9--9-9-9-9-9-9-9-||
|------------------|-------------------|------------------|-------------------||
|------------------|-------------------|------------------|-------------------||
|------------------|-------------------|------------------|-------------------||


 Pre-Chorus
  D
  W                   +W
|-2-----------------|-(2)-----------------|
|-3-----------------|-(3)-----------------|
|-2-----------------|-(2)-----------------|
|-0-----------------|-(0)-----------------|
|-------------------|---------------------|
|-------------------|---------------------|
|
| Q   E E +E  Q   E    Q    E E +E  Q   E
|-2---2-3-(3)-3---3-|--2----2-3-(3)-3---3-|
|-3---3-3-(3)-3---3-|--3----3-3-(3)-3---3-|
|-2---2-2-(2)-2---2-|--2----2-2-(2)-2---2-|
|-0---0-0-(0)-0---0-|--0----0-0-(0)-0---0-|
|-------------------|---------------------|
|-------------------|---------------------|
|
| E E E E  E  E E E    E  E E E  E  E E E
|-------------------|---------------------|
|-------------------|---------------------|
|-7-7-7-7--7--7-7-7-|--7--7-7-7--7--7-7-7-|
|-------------------|---------------------|
|-------------------|---------------------|
|-------------------|---------------------|


  Am7
  W                   +W
|-0-----------------|-(0)-----------------|
|-1-----------------|-(1)-----------------|
|-0-----------------|-(0)-----------------|
|-2-----------------|-(2)-----------------|
|-0-----------------|-(0)-----------------|
|-------------------|---------------------|
|
| Q   E E +E  Q   E    Q    E E +E  Q   E
|-0---0-3-(3)-3---3-|--0----0-3-(3)-3---3-|
|-1---1-1-(1)-1---1-|--1----1-1-(1)-1---1-|
|-0---0-0-(0)-0---0-|--0----0-0-(0)-0---0-|
|-2---2-2-(2)-2---2-|--2----2-2-(2)-2---2-|
|-0---0-0-(0)-0---0-|--0----0-0-(0)-0---0-|
|-------------------|---------------------|
|
| E E E E  E  E E E    E  E E E  E  E E E
|-------------------|---------------------|
|-------------------|---------------------|
|-9-9-9-9--9--9-9-9-|--9--9-9-9--9--9-9-9-|
|-------------------|---------------------|
|-------------------|---------------------|
|-------------------|---------------------|


  D
  W                   +W
|-2-----------------|-(2)-----------------|
|-3-----------------|-(3)-----------------|
|-2-----------------|-(2)-----------------|
|-0-----------------|-(0)-----------------|
|-------------------|---------------------|
|-------------------|---------------------|
|
| Q   E E +E  Q   E    Q    E E +E  Q   E
|-2---2-3-(3)-3---3-|--2----2-3-(3)-3---3-|
|-3---3-3-(3)-3---3-|--3----3-3-(3)-3---3-|
|-2---2-2-(2)-2---2-|--2----2-2-(2)-2---2-|
|-0---0-0-(0)-0---0-|--0----0-0-(0)-0---0-|
|-------------------|---------------------|
|-------------------|---------------------|
|
| E E E E  E  E E E    E  E E E  E  E E E
|-------------------|---------------------|
|-------------------|---------------------|
|-7-7-7-7--7--7-7-7-|--7--7-7-7--7--7-7-7-|
|-------------------|---------------------|
|-------------------|---------------------|
|-------------------|---------------------|


  Cadd9
  W                   +W
|-3-----------------|-(3)-----------------||
|-3-----------------|-(3)-----------------||
|-0-----------------|-(0)-----------------||
|-2-----------------|-(2)-----------------||
|-3-----------------|-(3)-----------------||
|-------------------|---------------------||
|
| Q   E E +E  Q   E    Q    E E +E  Q   E
|-3---3-3-(3)-3---3-|--3----3-3-(3)-3---3-||
|-3---3-3-(3)-3---3-|--3----3-3-(3)-3---3-||
|-0---0-0-(0)-0---0-|--0----0-0-(0)-0---0-||
|-2---2-2-(2)-2---2-|--2----2-2-(2)-2---2-||
|-3---3-3-(3)-3---3-|--3----3-3-(3)-3---3-||
|-------------------|---------------------||
|
| E E E E  E  E E E    E  E E E  E  E E E
|-------------------|---------------------||
|-------------------|---------------------||
|-9-9-9-9--9--9-9-9-|--9--9-9-9--9--9-9-9-||
|-------------------|---------------------||
|-------------------|---------------------||
|-------------------|---------------------||


   Chorus
    $
    G                D                Cadd9
    Gtrs I, II, III (Gtr. I: El. Gtr. w/ dist.)
    Q.   E +Q   Q    Q.   E +Q   Q    Q.   E +Q   Q    Q.   E +Q   Q
||--3----3-(3)--3--|-2----2-(2)--2--|-3----3-(3)--3--|-3----3-(3)--3---|
||o-3----3-(3)--3--|-3----3-(3)--3--|-3----3-(3)--3--|-3----3-(3)--3---|
||--0----0-(0)--0--|-2----2-(2)--2--|-0----0-(0)--0--|-0----0-(0)--0---|
||--0----0-(0)--0--|-0----0-(0)--0--|-2----2-(2)--2--|-2----2-(2)--2---|
||o-2----2-(2)--2--|----------------|-3----3-(3)--3--|-3----3-(3)--3---|
||--3----3-(3)--3--|----------------|----------------|-----------------|


  Em7              D                Cadd9
  Q.   E +Q   Q    Q.   E +Q   Q    Q.   E +Q   Q    Q.   E +Q   Q
|-0----0-(0)--0--|-2----2-(2)--2--|-3----3-(3)--3--|-3----3-(3)--3--|
|-0----0-(0)--0--|-3----3-(3)--3--|-3----3-(3)--3--|-3----3-(3)--3--|
|-0----0-(0)--0--|-2----2-(2)--2--|-0----0-(0)--0--|-0----0-(0)--0--|
|-0----0-(0)--0--|-0----0-(0)--0--|-2----2-(2)--2--|-2----2-(2)--2--|
|-2----2-(2)--2--|----------------|-3----3-(3)--3--|-3----3-(3)--3--|
|-0----0-(0)--0--|----------------|----------------|----------------|


                                                            To Coda
  G                Bm7              Cadd9
  Q.   E +Q   Q    Q.   E +Q   Q    Q.   E +Q   Q    Q.   E +Q   Q
|-3----3-(3)--3--|-2----2-(2)--2--|-3----3-(3)--3--|-3----3-(3)--3--|
|-3----3-(3)--3--|-3----3-(3)--3--|-3----3-(3)--3--|-3----3-(3)--3--|
|-0----0-(0)--0--|-2----2-(2)--2--|-0----0-(0)--0--|-0----0-(0)--0--|
|-0----0-(0)--0--|-4----4-(4)--4--|-2----2-(2)--2--|-2----2-(2)--2--|
|-2----2-(2)--2--|-2----2-(2)--2--|-3----3-(3)--3--|-3----3-(3)--3--|
|-3----3-(3)--3--|----------------|----------------|----------------|


                  1.
  Am7              Cadd9
  Q.   E +Q   Q    Q.   E +Q   Q    W          +W
|-0----0-(0)--0--|-3----3-(3)--3--|-3--------|-(3)----||
|-1----1-(1)--1--|-3----3-(3)--3--|-3--------|-(3)----||
|-0----0-(0)--0--|-0----0-(0)--0--|-0--------|-(0)----||
|-2----2-(2)--2--|-2----2-(2)--2--|-2--------|-(2)----||
|-0----0-(0)--0--|-3----3-(3)--3--|-3--------|-(3)----||
|----------------|----------------|----------|--------||


 Interlude
  G                   D
  Gtr V (El. Gtr. w/ light dist.)
  H       +E  E Q     H       +E  E Q
|-3-------(3)-3-----|-2-------(2)-3-----|
|-3-------(3)---3---|-3-------(3)---3---|
|-0-------(0)-------|-2-------(2)-------|
|-0-------(0)-------|-0-------(0)-------|
|-2-------(2)-------|-------------------|
|-3-------(3)-------|-------------------|
|
| Gtr III
| Q   E E +E  E E E   Q   E E +E  E E E
|-3---3-3-(3)-3-3-3-|-2---2-2-(2)-2-2-2-|
|-3---3-3-(3)-3-3-3-|-3---3-3-(3)-3-3-3-|
|-0---0-0-(0)-0-0-0-|-2---2-2-(2)-2-2-2-|
|-0---0-0-(0)-0-0-0-|-0---0-0-(0)-0-0-0-|
|-2---2-2-(2)-2-2-2-|-------------------|
|-3---3-3-(3)-3-3-3-|-------------------|
|
| Gtr IV
| E E E E  E  E E E   E E E E  E  E E E
|-------------------|-------------------|
|-------------------|-------------------|
|-------------------|-------------------|
|-------------------|-------------------|
|-------------------|-5-5-5-5--5--5-5-5-|
|-3-3-3-3--3--3-3-3-|-------------------|


  Cadd9
  H       +E  E Q     Q   Q   +E  E Q
|-3-------(3)-3-----|-3-----------3-----||
|-3-------(3)---3---|-----3---(3)---3---||
|-0-------(0)-------|-------------------||
|-2-------(2)-------|-------------------||
|-3-------(3)-------|-------------------||
|-------------------|-------------------||
|
| Q   E E +E  E E E   Q   E E +E  E E E
|-3---3-3-(3)-3-3-3-|-3---3-3-(3)-3-3-3-||
|-3---3-3-(3)-3-3-3-|-3---3-3-(3)-3-3-3-||
|-0---0-0-(0)-0-0-0-|-0---0-0-(0)-0-0-0-||
|-2---2-2-(2)-2-2-2-|-2---2-2-(2)-2-2-2-||
|-3---3-3-(3)-3-3-3-|-3---3-3-(3)-3-3-3-||
|-------------------|-------------------||
|
| E E E E  E  E E E   E E E E  E  E E E
|-------------------|-------------------||
|-------------------|-------------------||
|-------------------|-------------------||
|-------------------|-------------------||
|-3-3-3-3--3--3-3-3-|-3-3-3-3--3--3-3-3-||
|-------------------|-------------------||


 4th Verse
  G
  H       +E  E Q     Q   Q   +E  E Q
|-3-------(3)-3-----|-3-----------3-----|
|-3-------(3)---3---|-----3---(3)---3---|
|-0-------(0)-------|-------------------|
|-0-------(0)-------|-------------------|
|-2-------(2)-------|-------------------|
|-3-------(3)-------|-------------------|
|
| Q   E E +E  E E E   Q   E E +E  E E E
|-3---3-3-(3)-3-3-3-|-3---3-3-(3)-3-3-3-|
|-3---3-3-(3)-3-3-3-|-3---3-3-(3)-3-3-3-|
|-0---0-0-(0)-0-0-0-|-0---0-0-(0)-0-0-0-|
|-0---0-0-(0)-0-0-0-|-0---0-0-(0)-0-0-0-|
|-2---2-2-(2)-2-2-2-|-2---2-2-(2)-2-2-2-|
|-3---3-3-(3)-3-3-3-|-3---3-3-(3)-3-3-3-|
|
| E E E E  E  E E E   E E E E  E  E E E
|-------------------|-------------------|
|-------------------|-------------------|
|-------------------|-------------------|
|-------------------|-------------------|
|-------------------|-------------------|
|-3-3-3-3--3--3-3-3-|-3-3-3-3--3--3-3-3-|


  Cadd9
  H       +E  E Q     Q   Q   +E  E Q
|-3-------(3)-3-----|-3-----------3-----|
|-3-------(3)---3---|-----3---(3)---3---|
|-0-------(0)-------|-------------------|
|-2-------(2)-------|-------------------|
|-3-------(3)-------|-------------------|
|-------------------|-------------------|
|
| Q   E E +E  E E E   Q   E E +E  E E E
|-3---3-3-(3)-3-3-3-|-3---3-3-(3)-3-3-3-|
|-3---3-3-(3)-3-3-3-|-3---3-3-(3)-3-3-3-|
|-0---0-0-(0)-0-0-0-|-0---0-0-(0)-0-0-0-|
|-2---2-2-(2)-2-2-2-|-2---2-2-(2)-2-2-2-|
|-3---3-3-(3)-3-3-3-|-3---3-3-(3)-3-3-3-|
|-------------------|-------------------|
|
| E E E E  E  E E E   E E E E  E  E E E
|-------------------|-------------------|
|-------------------|-------------------|
|-------------------|-------------------|
|-------------------|-------------------|
|-3-3-3-3--3--3-3-3-|-3-3-3-3--3--3-3-3-|
|-------------------|-------------------|


  Em7
  H       +E  E Q     Q   Q    E  E Q
|-0-------(0)-3-----|-3-----------3-----|
|-0-------(0)---3---|-----3----3----3---|
|-0-------(0)-------|-------------------|
|-0-------(0)-------|-------------------|
|-2-------(2)-------|-------------------|
|-0-------(0)-------|-------------------|
|
| Q   E E +E  E E E   Q   E E +E  E E E
|-0---0-0-(0)-0-0-0-|-0---0-0-(0)-0-0-0-|
|-0---0-0-(0)-0-0-0-|-0---0-0-(0)-0-0-0-|
|-0---0-0-(0)-0-0-0-|-0---0-0-(0)-0-0-0-|
|-0---0-0-(0)-0-0-0-|-2---2-2-(2)-2-2-2-|
|-2---2-2-(2)-2-2-2-|-2---2-2-(2)-2-2-2-|
|-0---0-0-(0)-0-0-0-|-0---0-0-(0)-0-0-0-|
|
| E E E E  E  E E E   E E E E  E  E E E
|-------------------|-------------------|
|-------------------|-------------------|
|-------------------|-------------------|
|-------------------|-------------------|
|-------------------|-------------------|
|-3-3-3-3--3--3-3-3-|-3-3-3-3--3--3-3-3-|


  Cadd9
  Q   E E  E  E E E   E E E E  E  E E E
|-3---3-3--3--3-3-3-|-3-3-3-3--3--3-3-3-||
|-3---3-3--3--3-3-3-|-3-3-3-3--3--3-3-3-||
|-0---0-0--0--0-0-0-|-0-0-0-0--0--0-0-0-||
|-2---2-2--2--2-2-2-|-2-2-2-2--2--2-2-2-||
|-3---3-3--3--3-3-3-|-3-3-3-3--3--3-3-3-||
|-------------------|-------------------||
|
| Q   E E +E  E E E   Q   E E +E  E E E
|-3---3-3-(3)-3-3-3-|-3---3-3-(3)-3-3-3-||
|-3---3-3-(3)-3-3-3-|-3---3-3-(3)-3-3-3-||
|-0---0-0-(0)-0-0-0-|-0---0-0-(0)-0-0-0-||
|-2---2-2-(2)-2-2-2-|-2---2-2-(2)-2-2-2-||
|-3---3-3-(3)-3-3-3-|-3---3-3-(3)-3-3-3-||
|-------------------|-------------------||
|
| E E E E  E  E E E   E E E E  E  E E E
|-------------------|-------------------||
|-------------------|-------------------||
|-------------------|-------------------||
|-------------------|-------------------||
|-3-3-3-3--3--3-3-3-|-3-3-3-3--3--3-3-3-||
|-------------------|-------------------||


 5th Verse
  G
  E E E E  E  E E E   E E E E  E  E E E
|-3-3-3-3--3--3-3-3-|-3-3-3-3--3--3-3-3-|
|-3-3-3-3--3--3-3-3-|-3-3-3-3--3--3-3-3-|
|-0-0-0-0--0--0-0-0-|-0-0-0-0--0--0-0-0-|
|-0-0-0-0--0--0-0-0-|-0-0-0-0--0--0-0-0-|
|-2-2-2-2--2--2-2-2-|-2-2-2-2--2--2-2-2-|
|-3-3-3-3--3--3-3-3-|-3-3-3-3--3--3-3-3-|
|
| Q   E E +E  E E E   Q   E E +E  E E E
|-3---3-3-(3)-3-3-3-|-3---3-3-(3)-3-3-3-|
|-3---3-3-(3)-3-3-3-|-3---3-3-(3)-3-3-3-|
|-0---0-0-(0)-0-0-0-|-0---0-0-(0)-0-0-0-|
|-0---0-0-(0)-0-0-0-|-0---0-0-(0)-0-0-0-|
|-2---2-2-(2)-2-2-2-|-2---2-2-(2)-2-2-2-|
|-3---3-3-(3)-3-3-3-|-3---3-3-(3)-3-3-3-|
|
| E E E E  E  E E E   E E E E  E  E E E
|-------------------|-------------------|
|-------------------|-------------------|
|-7-7-7-7--7--7-7-7-|-7-7-7-7--7--7-7-7-|
|-------------------|-------------------|
|-------------------|-------------------|
|-------------------|-------------------|


  Cadd9
  E E E E  E  E E E   E E E E  E  E E E
|-3-3-3-3--3--3-3-3-|-3-3-3-3--3--3-3-3-|
|-3-3-3-3--3--3-3-3-|-3-3-3-3--3--3-3-3-|
|-0-0-0-0--0--0-0-0-|-0-0-0-0--0--0-0-0-|
|-2-2-2-2--2--2-2-2-|-2-2-2-2--2--2-2-2-|
|-3-3-3-3--3--3-3-3-|-3-3-3-3--3--3-3-3-|
|-------------------|-------------------|
|
| Q   E E +E  E E E   Q   E E +E  E E E
|-3---3-3-(3)-3-3-3-|-3---3-3-(3)-3-3-3-|
|-3---3-3-(3)-3-3-3-|-3---3-3-(3)-3-3-3-|
|-0---0-0-(0)-0-0-0-|-0---0-0-(0)-0-0-0-|
|-2---2-2-(2)-2-2-2-|-2---2-2-(2)-2-2-2-|
|-3---3-3-(3)-3-3-3-|-3---3-3-(3)-3-3-3-|
|-------------------|-------------------|
|
| E E E E  E  E E E   E E E E  E  E E E
|-------------------|-------------------|
|-------------------|-------------------|
|-9-9-9-9--9--9-9-9-|-9-9-9-9--9--9-9-9-|
|-------------------|-------------------|
|-------------------|-------------------|
|-------------------|-------------------|


  Em7
  E E E E  E  E E E   E E E E  E  E E E
|-3-3-3-3--3--3-3-3-|-3-3-3-3--3--3-3-3-|
|-3-3-3-3--3--3-3-3-|-3-3-3-3--3--3-3-3-|
|-0-0-0-0--0--0-0-0-|-0-0-0-0--0--0-0-0-|
|-0-0-0-0--0--0-0-0-|-0-0-0-0--0--0-0-0-|
|-2-2-2-2--2--2-2-2-|-2-2-2-2--2--2-2-2-|
|-0-0-0-0--0--0-0-0-|-0-0-0-0--0--0-0-0-|
|
| Q   E E +E  E E E   Q   E E +E  E E E
|-0---0-0-(0)-0-0-0-|-0---0-0-(0)-0-0-0-|
|-0---0-0-(0)-0-0-0-|-0---0-0-(0)-0-0-0-|
|-0---0-0-(0)-0-0-0-|-0---0-0-(0)-0-0-0-|
|-0---0-0-(0)-0-0-0-|-2---2-2-(2)-2-2-2-|
|-2---2-2-(2)-2-2-2-|-2---2-2-(2)-2-2-2-|
|-0---0-0-(0)-0-0-0-|-0---0-0-(0)-0-0-0-|
|
| E E E E  E  E E E   E E E E  E  E E E
|-------------------|-------------------|
|-------------------|-------------------|
|-7-7-7-7--7--7-7-7-|-7-7-7-7--7--7-7-7-|
|-------------------|-------------------|
|-------------------|-------------------|
|-------------------|-------------------|


  D
  E E E E  E  E E E   E E E E  E  E E E
|-2-2-2-2--2--2-2-2-|-2-2-2-2--2--2-2-2--||
|-3-3-3-3--3--3-3-3-|-3-3-3-3--3--3-3-3-o||
|-2-2-2-2--2--2-2-2-|-2-2-2-2--2--2-2-2--||
|-0-0-0-0--0--0-0-0-|-0-0-0-0--0--0-0-0--||
|-------------------|-------------------o||
|-------------------|--------------------||
|
| Q   E E +E  E E E   Q   E E +E  E E E
|-2---2-2-(2)-2-2-2-|-2---2-2-(2)-2-2-2--||
|-3---3-3-(3)-3-3-3-|-3---3-3-(3)-3-3-3-o||
|-2---2-2-(2)-2-2-2-|-2---2-2-(2)-2-2-2--||
|-0---0-0-(0)-0-0-0-|-0---0-0-(0)-0-0-0--||
|-------------------|-------------------o||
|-------------------|--------------------||
|
| E E E E  E  E E E   E E E E  E  E E E
|-------------------|--------------------||
|-------------------|-------------------o||
|-7-7-7-7--7--7-7-7-|-7-7-7-7--7--7-7-7--||
|-------------------|--------------------||
|-------------------|-------------------o||
|-------------------|--------------------||


  2.
  Cadd9
  Gtr I                                        w/ slide
  Q.   E +Q   Q    Q.   E +Q   Q    Q.   E +Q   Q
|-3----3-(3)--3--|-3----3-(3)--3--|-3----3-(3)------||
|-3----3-(3)--3--|-3----3-(3)--3--|-3----3-(3)--3s==||
|-0----0-(0)--0--|-0----0-(0)--0--|-0----0-(0)------||
|-2----2-(2)--2--|-2----2-(2)--2--|-2----2-(2)------||
|-3----3-(3)--3--|-3----3-(3)--3--|-3----3-(3)------||
|----------------|----------------|-----------------||
|
| Gtr II                                        Gtrs II, V
| Q.   E +Q   Q    Q.   E +Q   Q    Q.   E +Q   Q
|-3----3-(3)--3--|-3----3-(3)--3--|-3----3-(3)--3---||
|-3----3-(3)--3--|-3----3-(3)--3--|-3----3-(3)--3---||
|-0----0-(0)--0--|-0----0-(0)--0--|-0----0-(0)--0---||
|-2----2-(2)--2--|-2----2-(2)--2--|-2----2-(2)--2---||
|-3----3-(3)--3--|-3----3-(3)--3--|-3----3-(3)--3---||
|----------------|----------------|-----------------||
|
| Gtr III
| Q.   E +Q   Q    Q.   E +Q   Q    Q.   E +Q   Q
|-3----3-(3)--3--|-3----3-(3)--3--|-3----3-(3)--3---||
|-3----3-(3)--3--|-3----3-(3)--3--|-3----3-(3)--3---||
|-0----0-(0)--0--|-0----0-(0)--0--|-0----0-(0)--0---||
|-2----2-(2)--2--|-2----2-(2)--2--|-2----2-(2)--2---||
|-3----3-(3)--3--|-3----3-(3)--3--|-3----3-(3)--3---||
|----------------|----------------|-----------------||


 Guitar Solo
  G                 D                    Cadd9
   W                 Q.    E  E  E E E   W                +H.           Q
|-----------------|--------------------|----------------|-------------------|
|-12--------------|-10----10s=8--8---7-|-8--------------|-(8)\----------3s==|
|-----------------|--------------------|----------------|-------------------|
|-----------------|--------------------|----------------|-------------------|
|-----------------|--------------------|----------------|-------------------|
|-----------------|--------------------|----------------|-------------------|
|
|  Q.   E +Q   Q     Q.    E +Q    Q     Q.   E +Q   Q     Q.    E +Q   Q
|--3----3-(3)--3--|--2-----2-(2)---2---|-3----3-(3)--3--|--3-----3-(3)--3---|
|--3----3-(3)--3--|--3-----3-(3)---3---|-3----3-(3)--3--|--3-----3-(3)--3---|
|--0----0-(0)--0--|--2-----2-(2)---2---|-0----0-(0)--0--|--0-----0-(0)--0---|
|--0----0-(0)--0--|--0-----0-(0)---0---|-2----2-(2)--2--|--2-----2-(2)--2---|
|--2----2-(2)--2--|--------------------|-3----3-(3)--3--|--3-----3-(3)--3---|
|--3----3-(3)--3--|--------------------|----------------|-------------------|
|
|  Q.   E +Q   Q     Q.    E +Q    Q     Q.   E +Q   Q     Q.    E +Q   Q
|--3----3-(3)--3--|--2-----2-(2)---2---|-3----3-(3)--3--|--3-----3-(3)--3---|
|--3----3-(3)--3--|--3-----3-(3)---3---|-3----3-(3)--3--|--3-----3-(3)--3---|
|--0----0-(0)--0--|--2-----2-(2)---2---|-0----0-(0)--0--|--0-----0-(0)--0---|
|--0----0-(0)--0--|--0-----0-(0)---0---|-2----2-(2)--2--|--2-----2-(2)--2---|
|--2----2-(2)--2--|--------------------|-3----3-(3)--3--|--3-----3-(3)--3---|
|--3----3-(3)--3--|--------------------|----------------|-------------------|


  G                      D
            |---3----|             |--3---|
   H       +Q   Q    Q    H       +Q  Q   Q
|----------------------|--------------------|
|-12------(12)-12---13-|-10------(10)-8---7-|
|----------------------|--------------------|
|----------------------|--------------------|
|----------------------|--------------------|
|----------------------|--------------------|
|
|  Q.   E  +Q     Q       Q.   E  +Q    Q
|--3----3--(3)----3----|--2----2--(2)---2---|
|--3----3--(3)----3----|--3----3--(3)---3---|
|--0----0--(0)----0----|--2----2--(2)---2---|
|--0----0--(0)----0----|--0----0--(0)---0---|
|--2----2--(2)----2----|--------------------|
|--3----3--(3)----3----|--------------------|
|
|  Q.   E  +Q     Q       Q.   E  +Q    Q
|--3----3--(3)----3----|--2----2--(2)---2---|
|--3----3--(3)----3----|--3----3--(3)---3---|
|--0----0--(0)----0----|--2----2--(2)---2---|
|--0----0--(0)----0----|--0----0--(0)---0---|
|--2----2--(2)----2----|--------------------|
|--3----3--(3)----3----|--------------------|


  Cadd9
  S  S H..              +W
|---------------------|------------------|
|-8--7-5--------------|-(5)\-------------|
|---------------------|------------------|
|---------------------|------------------|
|---------------------|------------------|
|---------------------|------------------|
|
| Q.        E +Q   Q     Q.    E +Q   Q
|-3---------3-(3)--3--|--3-----3-(3)--3--|
|-3---------3-(3)--3--|--3-----3-(3)--3--|
|-0---------0-(0)--0--|--0-----0-(0)--0--|
|-2---------2-(2)--2--|--2-----2-(2)--2--|
|-3---------3-(3)--3--|--3-----3-(3)--3--|
|---------------------|------------------|
|
| Q.        E +Q   Q     Q.    E +Q   Q
|-3---------3-(3)--3--|--3-----3-(3)--3--|
|-3---------3-(3)--3--|--3-----3-(3)--3--|
|-0---------0-(0)--0--|--0-----0-(0)--0--|
|-2---------2-(2)--2--|--2-----2-(2)--2--|
|-3---------3-(3)--3--|--3-----3-(3)--3--|
|---------------------|------------------|


  G                 D                  Cadd9
  Q.   E +Q    Q     Q.   E +Q   Q     W                +H       H
|-----------------|------------------|----------------|-----------------|
|-3----3-(3)/--7--|-/8---------------|----------------|-----------------|
|-----------------|-------7-(7)--4/--|-9--------------|-(9)------7s=====|
|-----------------|------------------|----------------|-----------------|
|-----------------|------------------|----------------|-----------------|
|-----------------|------------------|----------------|-----------------|
|
| Q.   E +Q    Q     Q.   E +Q   Q     Q.   E +Q   Q     Q.   E +Q   Q
|-3----3-(3)---3--|--2----2-(2)--2---|-3----3-(3)--3--|--3----3-(3)--3--|
|-3----3-(3)---3--|--3----3-(3)--3---|-3----3-(3)--3--|--3----3-(3)--3--|
|-0----0-(0)---0--|--2----2-(2)--2---|-0----0-(0)--0--|--0----0-(0)--0--|
|-0----0-(0)---0--|--0----0-(0)--0---|-2----2-(2)--2--|--2----2-(2)--2--|
|-2----2-(2)---2--|------------------|-3----3-(3)--3--|--3----3-(3)--3--|
|-3----3-(3)---3--|------------------|----------------|-----------------|
|
| Q.   E +Q    Q     Q.   E +Q   Q     Q.   E +Q   Q     Q.   E +Q   Q
|-3----3-(3)---3--|--2----2-(2)--2---|-3----3-(3)--3--|--3----3-(3)--3--|
|-3----3-(3)---3--|--3----3-(3)--3---|-3----3-(3)--3--|--3----3-(3)--3--|
|-0----0-(0)---0--|--2----2-(2)--2---|-0----0-(0)--0--|--0----0-(0)--0--|
|-0----0-(0)---0--|--0----0-(0)--0---|-2----2-(2)--2--|--2----2-(2)--2--|
|-2----2-(2)---2--|------------------|-3----3-(3)--3--|--3----3-(3)--3--|
|-3----3-(3)---3--|------------------|----------------|-----------------|


  Em7
              ~~~~~~~~~~~~~~~~~~~~~~~~~~~~~~~~~~
  W          +W           +W                +W
|----------|------------|-----------------|------------------||
|----------|------------|-----------------|------------------||
|-9--------|-(9)--------|-(9)-------------|-(9)--------------||
|----------|------------|-----------------|------------------||
|----------|------------|-----------------|------------------||
|----------|------------|-----------------|------------------||
|
| W          +W           +W                +W
|-0--------|-(0)--------|-(0)-------------|-(0)--------------||
|-0--------|-(0)--------|-(0)-------------|-(0)--------------||
|-0--------|-(0)--------|-(0)-------------|-(0)--------------||
|-0--------|-(0)--------|-(0)-------------|-(0)--------------||
|-2--------|-(2)--------|-(2)-------------|-(2)--------------||
|-0--------|-(0)--------|-(0)-------------|-(0)--------------||
|
| W          +W            Q.   E +Q   Q    +E  Q  E E E E E
|-0--------|-(0)--------|--0----0-(0)--0--|-(0)-0--0-0-0-0-0-||
|-0--------|-(0)--------|--0----0-(0)--0--|-(0)-0--0-0-0-0-0-||
|-0--------|-(0)--------|--0----0-(0)--0--|-(0)-0--0-0-0-0-0-||
|-0--------|-(0)--------|--0----0-(0)--0--|-(0)-0--0-0-0-0-0-||
|-2--------|-(2)--------|--2----2-(2)--2--|-(2)-2--2-2-2-2-2-||
|-0--------|-(0)--------|--0----0-(0)--0--|-(0)-0--0-0-0-0-0-||


 Bridge
  Em7                                 Cadd9
  Gtr III
  E E E E E E E E   E E E E E E E E   E E E E E E E E   E E E E E E E E
|-0-0-0-0-0-0-0-0-|-0-0-0-0-0-0-0-0-|-3-3-3-3-3-3-3-3-|-3-3-3-3-3-3-3-3-|
|-0-0-0-0-0-0-0-0-|-0-0-0-0-0-0-0-0-|-3-3-3-3-3-3-3-3-|-3-3-3-3-3-3-3-3-|
|-0-0-0-0-0-0-0-0-|-0-0-0-0-0-0-0-0-|-0-0-0-0-0-0-0-0-|-0-0-0-0-0-0-0-0-|
|-0-0-0-0-0-0-0-0-|-0-0-0-0-0-0-0-0-|-2-2-2-2-2-2-2-2-|-2-2-2-2-2-2-2-2-|
|-2-2-2-2-2-2-2-2-|-2-2-2-2-2-2-2-2-|-3-3-3-3-3-3-3-3-|-3-3-3-3-3-3-3-3-|
|-0-0-0-0-0-0-0-0-|-0-0-0-0-0-0-0-0-|-----------------|-----------------|


  Em7                                 Cadd9
  E E E E E E E E   E E E E E E E E   E E E E E E E E   E E E E E E E E
|-0-0-0-0-0-0-0-0-|-0-0-0-0-0-0-0-0-|-3-3-3-3-3-3-3-3-|-3-3-3-3-3-3-3-3-|
|-0-0-0-0-0-0-0-0-|-0-0-0-0-0-0-0-0-|-3-3-3-3-3-3-3-3-|-3-3-3-3-3-3-3-3-|
|-0-0-0-0-0-0-0-0-|-0-0-0-0-0-0-0-0-|-0-0-0-0-0-0-0-0-|-0-0-0-0-0-0-0-0-|
|-0-0-0-0-0-0-0-0-|-0-0-0-0-0-0-0-0-|-2-2-2-2-2-2-2-2-|-2-2-2-2-2-2-2-2-|
|-2-2-2-2-2-2-2-2-|-2-2-2-2-2-2-2-2-|-3-3-3-3-3-3-3-3-|-3-3-3-3-3-3-3-3-|
|-0-0-0-0-0-0-0-0-|-0-0-0-0-0-0-0-0-|-----------------|-----------------|


  Am7                               Cadd9
  Q.   E +Q   Q    Q.   E +Q   Q    Q.   E +Q   Q    Q  E E +E  E E E
|-0----0-(0)--0--|-0----0-(0)--0--|-3----3-(3)--3--|-3--3-3-(3)-3-3-3-|
|-1----1-(1)--1--|-1----1-(1)--1--|-3----3-(3)--3--|-3--3-3-(3)-3-3-3-|
|-0----0-(0)--0--|-0----0-(0)--0--|-0----0-(0)--0--|-0--0-0-(0)-0-0-0-|
|-2----2-(2)--2--|-2----2-(2)--2--|-2----2-(2)--2--|-2--2-2-(2)-2-2-2-|
|-0----0-(0)--0--|-0----0-(0)--0--|-3----3-(3)--3--|-3--3-3-(3)-3-3-3-|
|----------------|----------------|----------------|------------------|


  Gtr II
  H       E  E E E   E  E E E  E  E E E
|------------------|--------------------|
|------------3-3-3-|-3--3-3-3--3--3-3-3-|
|------------2-2-2-|-2--2-2-2--2--2-2-2-|
|------------0-0-0-|-0--0-0-0--0--0-0-0-|
|------------------|--------------------|
|------------------|--------------------|
|
| Gtr III
| Q.   E +E  E E E   Q.     E +E  E E E
|-2----2-(2)-2-2-2-|-2------2-(2)-2-2-2-|
|-3----3-(3)-3-3-3-|-3------3-(3)-3-3-3-|
|-2----2-(2)-2-2-2-|-2------2-(2)-2-2-2-|
|-0----0-(0)-0-0-0-|-0------0-(0)-0-0-0-|
|------------------|--------------------|
|------------------|--------------------|


                              D.S. al Coda
  E  E E E  E  E E E   E  E E E  E  E E E
|--------------------|---------------------||
|-3--3-3-3--3--3-3-3-|-3--3-3-3--3--3-3-3--||
|-2--2-2-2--2--2-2-2-|-2--2-2-2--2--2-2-2--||
|-0--0-0-0--0--0-0-0-|-0--0-0-0--0--0-0-0--||
|--------------------|---------------------||
|--------------------|---------------------||
|
| Q.     E +E  E E E   Q.     E +E  E E E
|-2------2-(2)-2-2-2-|-2------2-(2)-2-2-2--||
|-3------3-(3)-3-3-3-|-3------3-(3)-3-3-3--||
|-2------2-(2)-2-2-2-|-2------2-(2)-2-2-2--||
|-0------0-(0)-0-0-0-|-0------0-(0)-0-0-0--||
|--------------------|---------------------||
|--------------------|---------------------||


  &
  Gtrs I, II, III
  Q.   E +Q   Q    Q.   E +Q   Q    Q.   E +Q   Q    Q.   E +Q   Q
|-3----3-(3)--3--|-2----2-(2)--2--|-3----3-(3)--3--|-3----3-(3)--3--||
|-3----3-(3)--3--|-3----3-(3)--3--|-3----3-(3)--3--|-3----3-(3)--3--||
|-0----0-(0)--0--|-2----2-(2)--2--|-0----0-(0)--0--|-0----0-(0)--0--||
|-0----0-(0)--0--|-4----4-(4)--4--|-2----2-(2)--2--|-2----2-(2)--2--||
|-2----2-(2)--2--|-2----2-(2)--2--|-3----3-(3)--3--|-3----3-(3)--3--||
|-3----3-(3)--3--|----------------|----------------|----------------||


 Chorus
  G                D                Cadd9
  Q.   E +Q   Q    Q.   E +Q   Q    Q.   E +Q   Q    Q.   E +Q   Q
|-3----3-(3)--3--|-2----2-(2)--2--|-3----3-(3)--3--|-3----3-(3)--3--|
|-3----3-(3)--3--|-3----3-(3)--3--|-3----3-(3)--3--|-3----3-(3)--3--|
|-0----0-(0)--0--|-2----2-(2)--2--|-0----0-(0)--0--|-0----0-(0)--0--|
|-0----0-(0)--0--|-0----0-(0)--0--|-2----2-(2)--2--|-2----2-(2)--2--|
|-2----2-(2)--2--|----------------|-3----3-(3)--3--|-3----3-(3)--3--|
|-3----3-(3)--3--|----------------|----------------|----------------|


  Em7              D                Cadd9
  Q.   E +Q   Q    Q.   E +Q   Q    Q.   E +Q   Q    Q.   E +Q   Q
|-0----0-(0)--0--|-2----2-(2)--2--|-3----3-(3)--3--|-3----3-(3)--3--|
|-0----0-(0)--0--|-3----3-(3)--3--|-3----3-(3)--3--|-3----3-(3)--3--|
|-0----0-(0)--0--|-2----2-(2)--2--|-0----0-(0)--0--|-0----0-(0)--0--|
|-0----0-(0)--0--|-0----0-(0)--0--|-2----2-(2)--2--|-2----2-(2)--2--|
|-2----2-(2)--2--|----------------|-3----3-(3)--3--|-3----3-(3)--3--|
|-0----0-(0)--0--|----------------|----------------|----------------|


  G                Bm7              Cadd9
  Q.   E +Q   Q    Q.   E +Q   Q    Q.   E +Q   Q    Q.   E +Q   Q
|-3----3-(3)--3--|-2----2-(2)--2--|-3----3-(3)--3--|-3----3-(3)--3--|
|-3----3-(3)--3--|-3----3-(3)--3--|-3----3-(3)--3--|-3----3-(3)--3--|
|-0----0-(0)--0--|-2----2-(2)--2--|-0----0-(0)--0--|-0----0-(0)--0--|
|-0----0-(0)--0--|-4----4-(4)--4--|-2----2-(2)--2--|-2----2-(2)--2--|
|-2----2-(2)--2--|-2----2-(2)--2--|-3----3-(3)--3--|-3----3-(3)--3--|
|-3----3-(3)--3--|----------------|----------------|----------------|


  Am7              Cadd9
  Q.   E +Q   Q    Q.   E +Q   Q    Q.   E +Q   Q    E E E E E E E E
|-0----0-(0)--0--|-3----3-(3)--3--|-3----3-(3)--3--|-3-3-3-3-3-3-3-3-||
|-1----1-(1)--1--|-3----3-(3)--3--|-3----3-(3)--3--|-3-3-3-3-3-3-3-3-||
|-0----0-(0)--0--|-0----0-(0)--0--|-0----0-(0)--0--|-0-0-0-0-0-0-0-0-||
|-2----2-(2)--2--|-2----2-(2)--2--|-2----2-(2)--2--|-2-2-2-2-2-2-2-2-||
|-0----0-(0)--0--|-3----3-(3)--3--|-3----3-(3)--3--|-3-3-3-3-3-3-3-3-||
|----------------|----------------|----------------|-----------------||


   Outro
    G                D                Cadd9
    Q.   E +Q   Q    Q.   E +Q   Q    Q.   E +Q   Q    Q.   E +Q   Q    3x
||--3----3-(3)--3--|-2----2-(2)--2--|-3----3-(3)--3--|-3----3-(3)--3----||
||o-3----3-(3)--3--|-3----3-(3)--3--|-3----3-(3)--3--|-3----3-(3)--3---o||
||--0----0-(0)--0--|-2----2-(2)--2--|-0----0-(0)--0--|-0----0-(0)--0----||
||--0----0-(0)--0--|-0----0-(0)--0--|-2----2-(2)--2--|-2----2-(2)--2----||
||o-2----2-(2)--2--|----------------|-3----3-(3)--3--|-3----3-(3)--3---o||
||--3----3-(3)--3--|----------------|----------------|------------------||


  G                D                Cadd9
  Q.   E +Q   Q    Q.   E +Q   Q    W          +W           +W
|-3----3-(3)--3--|-2----2-(2)--2--|-3--------|-(3)--------|-(3)----*|
|-3----3-(3)--3--|-3----3-(3)--3--|-3--------|-(3)--------|-(3)----*|
|-0----0-(0)--0--|-2----2-(2)--2--|-0--------|-(0)--------|-(0)----*|
|-0----0-(0)--0--|-0----0-(0)--0--|-2--------|-(2)--------|-(2)----*|
|-2----2-(2)--2--|----------------|-3--------|-(3)--------|-(3)----*|
|-3----3-(3)--3--|----------------|----------|------------|--------*|


Duration Legend
---------------
W - whole; H - half; Q - quarter; E - 8th; S - 16th; T - 32nd; X - 64th; a - acciaccatura
+ - note tied to previous; . - note dotted; .. - note double dotted
Uncapitalized letters represent notes that are staccato (1/2 duration)
Irregular groupings are notated above the duration line
Duration letters will always appear directly above the note/fret number it represents the
duration for.  Duration letters with no fret number below them represent rests.  Multi-
bar rests are notated in the form Wxn, where n is the number of bars to rest for.  Low
melody durations appear below the staff

Tablature Legend
----------------
 h   - hammer-on
 p   - pull-off
 b   - bend
 pb  - pre-bend
 r   - bend release (if no number after the r, then release immediately)
 /\  - slide into or out of (from/to "nowhere")
 s   - legato slide
 S   - shift slide
  - natural harmonic
[n]  - artificial harmonic
n(n) - tapped harmonic
 ~   - vibrato
 tr  - trill
 T   - tap
 TP  - trem. picking
 PM  - palm muting
\n/  - tremolo bar dip; n = amount to dip
 \n  - tremolo bar down
 n/  - tremolo bar up
/n\  - tremolo bar inverted dip
 =   - hold bend; also acts as connecting device for hammers/pulls
 <>  - volume swell (louder/softer)
 x   - on rhythm slash represents muted slash
 o   - on rhythm slash represents single note slash

Misc Legend
-----------
 |  - bar
||  - double bar
||o - repeat start
o|| - repeat end
*|  - double bar (ending)
 :  - bar (freetime)
 $  - Segno
 &  - Coda
Tempo markers -  = BPM(8/16=s8/s16), where s8 = swing 8ths, s16 = swing 16ths

 
 
Bon Jovi - Superman Tonight Tab :: indexed at Ultimate Guitar.
Superman Tonight tabs @ 911Tabs

About the artist behind Superman Tonight Tab:

Jon Bon Jovi (born John Francis Bongiovi, Jr. on March 2, 1962) is an American musician, songwriter and actor. As lead singer and founder of the rock band Bon Jovi, he has sold over 120 million albums worldwide.[1] He is also the owner of an Arena Football League team, the Philadelphia Soul.

Indexed at Wikipedia.

Show us your talent, perform Superman Tonight Tab!

Here you can post a video or audio performance. Tell me more ...
Where can we find your performance? Tell me more ...
Your comment:
Please, log in to post your performance.