Artists by letter: A B C D E F G H I J K L M N O P Q R S T U V W X Y Z 0-9

 
Concrete Jungle Tab
CONCRETE JUNGLE

As recorded by Bob Marley & The Wailers
(From the 1973 Album CATCH A FIRE)


Gtr I (E A D G B E) - 'Electric Guitar 1'
Gtr II (E A D G B E) - 'Electric Guitar 2'
Gtr III (E A D G B E) - 'Electric Guitar 3'
Gtr IV (E A D G B E) - 'Electric Guitar 4'

 Intro
  Free time Q=90                                        Q=94(8=s8)
  N.C.
 4/4
  Gtr I
  H    a E   E   E   E     E.     S   a Q     E E E E   E.    S a H       Q
|------------------------:----------------------------:------------------------|
|------------------------:----------------------------:------------------------|
|------------------------:----------------------------:------------------------|
|------0h2---0-----------:----------------------------:------------------------|
|----------------0-------:------------0h2-------0-2-3-:---------0h2------------|
|--------------------3---:-0------3-------------------:-0-----3----------------|
|
| Gtr II
|        |--3--| |--3--|      |--3--|
| H      E E   E E E   E   E  S S   S   E S S E Q   E   E  Q.        +H
|------------------------:----------------------------:------------------------|
|------------------------:----------------------------:------------------------|
|------------------------:----------------------------:------------------------|
|------------------------:--------------4-------------:------------------------|
|------------------4h==6-:----4h5h==7-----x-----------:------------------------|
|----------5---5-7-------:----------------------0-----:----0---------(0)-------|


   Q    E E  E  E   E    E    E.    S  E   E +Q    Q
|--------------------------|---------------------------|
|--------------------------|---------------------------|
|--------------------------|---------------------------|
|--------------------------|---------------------------|
|-------0-0--0------0----2-|-----------0---------------|
|---------------3----------|--0-----3------3-(3)-------|
|
|                                ~~~~~~~~~~   ~~~
| +E  E Q   +E.   S S E.     +S  E.   +E   E +Q    Q
|--------------------------|---------------------------|
|--------------------------|---------------------------|
|--------------------------|---------------------------|
|-----2--------------------|---------------------------|
|-------0---(0)---0--------|---------------------------|
|-(0)---0---(0)-----2h3----|-(3)-5----(5)s=7-(7)-------|
|
| Gtr III
|  W                          Q        E   E  Q    E E
|--------------------------|---------------------------|
|--------------------------|----------12--10------10-8-|
|--------------------------|----------12--11------11-9-|
|--------------------------|---------------------------|
|--------------------------|---------------------------|
|--------------------------|---------------------------|


   E  S S S S S S E   E    E    E
|-----------------------------------|
|-----------------------------------|
|-----------------------------------|
|-----2-2-2-------------------------|
|-------------2-2-2---0-------------|
|--------------------------3----2---|
|
|  Q      E   S S S S S S  S  S S S
|-----------------------------------|
|-----------------------------------|
|--------------------------4--5-6-7-|
|-------------------4h5h7-----------|
|-------------4h5-7-----------------|
|-----------------------------------|
|
| +Q      E   E   E   E   +E    E
|-------------------------------3---|
|-(8)-----8---7---8---5---(5)---5---|
|-(9)-----9---7---7-----------------|
|-----------------------------------|
|-----------------------------------|
|-----------------------------------|


    E.   S  Q      H
|-------------------------------|
|-------------------------------|
|-------------------------------|
|-------------------------------|
|-----------2-------------------|
|---0----3--5-------------------|
|
|  +Q       E  E  +Q.      S  S
|-------------------------------|
|-------------------------------|
|-------------21-(21)-----------|
|-------------------------------|
|-(17)-----19-19-(19)-----19-21-|
|-------------------------------|
|
|  +E  E    E  E  +E  E E  E
|--(3)------7--5--(5)---5--3----|
|--(5)------8--7--(7)---7--5----|
|-------------------------------|
|-------------------------------|
|-------------------------------|
|-------------------------------|


   E  S S S S  S  S  E     E  E   E    E.   S  Q    Q    E   S S
|-----------------------------------|----------------------------|
|-----------------------------------|----------------------------|
|-----------------------------------|----------------------------|
|-----2-2-2-------------------------|------------------------0-2-|
|--------------2--2--2-----0--------|-------0--2-----------------|
|-----------------------------3---2-|--0-------5-----------------|
|
|  Q.          S  S  S  S  E  S S E    E  E   +Q   +E  E E   E
|-------------------------------3---|----------------------------|
|-------------------------------7-5-|--3--5---(5)--(5)-5-7---8---|
|-----------------------------------|----------------------------|
|-----------------------------------|----------------------------|
|-22----------21-22-21-19-21-21-----|----------------------------|
|-------------------------22--------|----------------------------|
|
| +Q      E    E     E     E  E   E   +H.                S E   S
|-(3)-------------------------------|----------------------------|
|-(5)-----5----7-----7-----5--3---5-|-(5)----------------5-3---3-|
|--------------7-----7--------------|----------------------------|
|-----------------------------------|----------------------------|
|-----------------------------------|----------------------------|
|-----------------------------------|----------------------------|


  +E  S S +E   S S  +E   E  E  E    W
|--------------------------------|--------------------------|
|--------------------------------|--------------------------|
|--------------0-2--(2)----------|--------------------------|
|-(2)-0-2-(2)--------------------|--------------------------|
|------------------------2--0----|--------------------------|
|------------------------------3-|--0-----------------------|
|
|  Q.          E    +E   E  E  E    Q    E  E  +E   E  E  E
|--------------------------------|--------------------------|
|-10----------10---(10)-10-12-14-|-15---15-15-(15)-14-15-14-|
|--------------------------------|--------------------------|
|--------------------------------|--------------------------|
|--------------------------------|--------------------------|
|--------------------------------|--------------------------|
|
| +H.                       E  E    E E  E  E  +H
|--------------------------------|--------------------------|
|-(3)-----------------------3--5-|--7-8--7--5--(5)----------|
|--------------------------------|--------------------------|
|--------------------------------|--------------------------|
|--------------------------------|--------------------------|
|--------------------------------|--------------------------|


   E  E E  E   E   E  E  E    Q.     E E E E E
|--------------------------|-------------0---0---|
|--------------------------|-------------0---0---|
|--------------------------|-------------0---0---|
|--------------------------|---------------------|
|--------------------------|---------------------|
|-----0-0--0---3---3--2--2-|--0------------------|
|
|  Q.      E  +E   E  E  E    W
|-12------12-(12)-12-10-12-|-12------------------|
|--------------------------|---------------------|
|--------------------------|---------------------|
|--------------------------|---------------------|
|--------------------------|---------------------|
|--------------------------|---------------------|
|
|                            Gtr IV
| +W                          E  E E E E E E E
|--------------------------|-----7---7---7---7---|
|-(5)----------------------|-----8---8---8---8---|
|--------------------------|-----9---9---9---9---|
|--------------------------|---------------------|
|--------------------------|---------------------|
|--------------------------|---------------------|


    E  E E E E E E E   E S S E E H                     E E E E H
|------0---0---0---0-|---0-----0---------------------|---0---0-----------|
|------1---1---1---3-|---0-0---0---------------------|---0---0-----------|
|------2---2---2---2-|---0-0---0---------------------|---0---0-----------|
|--------------------|-----0-------------------------|-------------------|
|--------------------|-------------------------------|-------------------|
|--------------------|-------------------------------|-------------------|
|
|                                                      Gtr III
|  +Q    Q   H         W                               H       S S E E E
|-(12)---------------|-------------------------------|---------3-2-------|
|--------------------|-------------------------------|-------------5-3-5-|
|--------------------|-------------------------------|-------------------|
|--------------------|-------------------------------|-------------------|
|--------------------|-------------------------------|-------------------|
|--------------------|-------------------------------|-------------------|
|
|   E  E E E E E E E   E S S E E E  S  S  S  S  S  S   E E E E E   E E E
|------5---5---5---5-|---7-7---7---------------------|---7---7-----7---7-|
|------5---5---5---5-|---8-8---8---------------------|---8---8-----8---8-|
|------5---5---5---5-|---9-9---9----9--9--9--9--9--9-|---9---9-----9---9-|
|--------------------|--------------9--9--9--9--9--9-|-------------------|
|--------------------|-------------10-10-10-10-10-10-|-------------------|
|--------------------|-------------------------------|-------------------|


   E  E E E H                     E  E E  E H
|-----3---3---------------------|----5----5-----------|
|-----5---5---------------------|----5----5-----------|
|-----4---4---------------------|----5----5-----------|
|-------------------------------|---------------------|
|-------------------------------|---------------------|
|-------------------------------|---------------------|
|
| +W                              W
|-------------------------------|---------------------|
|-(5)---------------------------|---------------------|
|-------------------------------|---------------------|
|-------------------------------|---------------------|
|-------------------------------|---------------------|
|-------------------------------|---------------------|
|
|  E  E E E E  S  S  S  S  S  S   E  E E  E E  E E  E
|-----7---7---------------------|---------------------|
|-----8---8---------------------|---10---10---10---10-|
|-----9---9----9--9--9--9--9--9-|----9----9----9----9-|
|--------------9--9--9--9--9--9-|---10---10---10---10-|
|-------------10-10-10-10-10-10-|---------------------|
|-------------------------------|---------------------|


  Q    E  E H           E  E E  E  H
|---------5-----------|------------------------|
|---------7-----------|----7----7--------------|
|---------7-----------|----7----7--------------|
|---------------------|----7----7--------------|
|---------------------|------------------------|
|---------------------|------------------------|
|
| W                     E  E E  E  E  E  E  E
|---------------------|------------------------|
|---------------------|-7--8-8-10-10-12-12-10--|
|---------------------|-7--9-9-11-11-12-12-11--|
|---------------------|------------------------|
|---------------------|------------------------|
|---------------------|------------------------|
|
| E  E E  E E  E E  E   E  E E  E  E  E  E  E
|---------------------|------------------------|
|---------------------|------------------------|
|---11---11---11---11-|---11---11----11----11--|
|---12---12---12---12-|---12---12----12----12--|
|---12---12---12---12-|---12---12----12----12--|
|---10---10---10---10-|---10---10----10----10--|


  E  S S E  S S  H
|------8----8-8---------------|
|------8----8-8---------------|
|------9----9-9---------------|
|-----------------------------|
|-----------------------------|
|-----------------------------|
|
| H             +E   E   Q
|-8-------------(8)-----------|
|-----------------------------|
|-----------------------------|
|-----------------------------|
|-----------------------------|
|-----------------------------|
|
| E  E   E  E    E   S S E  E
|-----------------------------|
|----------------------0------|
|----9------9--------9-0----9-|
|---10-----10-------10-0---10-|
|---10-----10-------10-0---10-|
|----8------8--------8------8-|


  E S S E S S H             E  S S E  E H
|---7-7---7-7-------------|----8-8----8--------------|
|---8-8---8-8-------------|----8-8----8--------------|
|---9-9---9-9-------------|----9-9----9--------------|
|-------------------------|--------------------------|
|-------------------------|--------------------------|
|-------------------------|--------------------------|
|
| W                         W
|-------------------------|--------------------------|
|-------------------------|--------------------------|
|-------------------------|--------------------------|
|-------------------------|--------------------------|
|-------------------------|--------------------------|
|-------------------------|--------------------------|
|
| E E   E E   E  S  S E E   E  E   E  E E  E E  S S
|-------------------------|--------------------------|
|---8-----8-------------8-|-----------------------0--|
|---9-----9------9--9---9-|----9------9----9----9-0--|
|---9-----9-----10--9---9-|---10-----10---10---10-0--|
|------------------10-----|---10-----10---10---10-0--|
|-------------------------|----8------8----8----8----|


  E S S Q  H      E   S  S Q  H
|---7-7---------|-----------------------|
|---8-8---------|-----------------------|
|---9-9---------|-----9--9--------------|
|---------------|-----9--9--------------|
|---------------|----10-10--------------|
|---------------|-----------------------|
|
| Gtr II
| W               W
|---------------|-----------------------|
|---------------|-----------------------|
|---------------|-----------------------|
|---------------|-----------------------|
|---------------|-----------------------|
|---------------|-----------------------|
|
| Gtr III
| W               H.             E  S S
|---------------|-----------------------|
|---------------|------------------10---|
|---------------|-9----------------12---|
|---------------|-----------------------|
|---------------|-----------------------|
|---------------|-----------------------|


   E S S Q  H       E S S  Q    Q   E S S
|----------------|------------------------|
|----8-8---------|------------------------|
|----7-7---------|----7-7-------------7-7-|
|----9-9---------|----7-7-------------7-7-|
|----------------|----9-9-------------9-9-|
|----------------|------------------------|
|
|  W                E E    Q   +H
|----------------|------------------------|
|----------------|------------------------|
|----------------|-12-----11--(11)--------|
|----------------|------------------------|
|----------------|------------------------|
|----------------|------------------------|
|
|  W                E E    Q    H
|----------------|------------------------|
|----------------|------------------------|
|-12-------------|-11---------------------|
|-12-------------|------------------------|
|----------------|------------------------|
|----------------|------------------------|


   E  S S  Q     H            E  S  S Q     Q     E  S  S
|---------------------------|-----------------------------|
|---------------------------|-----------------------------|
|-----7-7-------------------|----9--9----------------9--9-|
|-----7-7-------------------|----9--9----------------9--9-|
|-----9-9-------------------|---10-10---------------10-10-|
|---------------------------|-----------------------------|
|
| Gtr III
|  E  E    E  E  E  E  E  E   W
|---------------------------|-----------------------------|
|---------10-12-12-10-10--8-|-8---------------------------|
|-11-12---11-12-12-11-11--9-|-9---------------------------|
|-12-14---------------------|-----------------------------|
|---------------------------|-----------------------------|
|---------------------------|-----------------------------|
|
| Gtr IV
|  E  E    E  E  E  E  E  E   E  S  S E S S E S S E  S  S
|---------------------------|----7--7---7-7---7-7----7--7-|
|-----7-------7-----7-----7-|----8--8---8-8---8-8----8--8-|
|-----7-------7-----7-----7-|----9--9---9-9---9-9----9--9-|
|-----7-------7-----7-----7-|-----------------------------|
|---------------------------|-----------------------------|
|----10------10----10----10-|-----------------------------|


  E  S  S Q      Q         E  S  S
|----------------------------------|
|---10-10--------------------10----|
|----9--9---------------------9--9-|
|---10-10-----------------------12-|
|----------------------------------|
|----------------------------------|
|
| H              E    E    E  E
|----------------------------------|
|---------------10---12---10-------|
|---------------11---12---11-11----|
|----------------------------12----|
|----------------------------12----|
|----------------------------------|
|
| E  E    E S S  S S  S S  E  S  S
|----5------5-5----5--5-5-----5--5-|
|----5------5-5----5--5-5-----5--5-|
|----5------5-5----5--5-5-----5--5-|
|----------------------------------|
|----------------------------------|
|----------------------------------|


   E   S  S Q   Q     E  S  S   E  S  S Q      Q      E  S  S
|-----------------------------|-------------------------------|
|-----------------------------|-------------------------------|
|------9--9--------------9--9-|----9--9------------------9--9-|
|------9--9--------------9--9-|----9--9------------------9--9-|
|-----10-10-------------10-10-|---10-10-----------------10-10-|
|-----------------------------|-------------------------------|
|
|  H.                 Q         H              E E    Q
|-----------------------------|-------------------------------|
|-----------------------------|-------------------------------|
|-12--------------------------|----------------------11-------|
|-14--------------------------|---------------12-----12-------|
|-----------------------------|---------------14--------------|
|-----------------------------|-------------------------------|
|
|  E   E    E E E S S E  S  S   E  S  S E S S  E S S  E  S  S
|------7------7---7-7----7--7-|----7--7---7-7----7-7-----7--7-|
|------8------8---8-8----8--8-|----8--8---8-8----8-8-----8--8-|
|------9------9---9-9----9--9-|----9--9---9-9----9-9-----9--9-|
|-----------------------------|-------------------------------|
|-----------------------------|-------------------------------|
|-----------------------------|-------------------------------|


   E  S S Q     Q       E  S S
|--------------------------9-9---|
|-----8-8------------------8-8---|
|-----9-9------------------9-9---|
|-----9-9------------------------|
|--------------------------------|
|--------------------------------|
|
|  Q.       E   H
|--------------------------------|
|--------------------------------|
|-12-----------------------------|
|-14-----------------------------|
|--------------------------------|
|--------------------------------|
|
|  E  E   E S S E  S  S E  E
|-----7-----7-7---10-10---10-----|
|-----8-----8-8----8--8----8-----|
|-----9-----9-9----9--9----9-----|
|--------------------------------|
|--------------------------------|
|--------------------------------|


  E S S Q      Q       E  S S
|---8-8-----------------------|
|---8-8-------------------5-5-|
|---9-9-------------------9-9-|
|-------------------------9-9-|
|-----------------------------|
|-----------------------------|
|
| H            E  E    E  E
|-----------------------------|
|-------------10-12---10------|
|-------------11-12---11-11---|
|------------------------12---|
|-----------------------------|
|-----------------------------|
|
| E S S E S S  E  S S  E  S S
|---9-9---9-9-----8-8-----8-7-|
|---8-8---8-8-----8-8-----8-8-|
|---9-9---9-9-----9-9-----9-9-|
|-----------------------------|
|-----------------------------|
|-----------------------------|


   E  S S Q     Q       E  S  S   E S S Q      Q       E S S
|-----7-7-----------------------|-----------------------------|
|-----8-8------------------8--8-|---8-5------------------5-5--|
|-----9-9------------------9--9-|---9-9------------------4-4--|
|--------------------------9--9-|---9-9-----------------------|
|-------------------------------|-----------------------------|
|-------------------------------|-----------------------------|
|
|  H.                   Q         H            E  E    Q
|-------------------------------|-----------------------------|
|-------------------------------|-----------------------------|
|-12----------------------------|-----------------------------|
|-14----------------------------|-------------12-14---16------|
|-------------------------------|-------------14------17------|
|-------------------------------|-----------------------------|
|
|  E  S S E S S E  S  S E  S  S   E S S E S S  E  S S  E S S
|-----7-7---7-7---10-10---10-10-|---9-9---9-9-----8-8----8-7--|
|-----8-8---8-8----8--8----8--8-|---8-8---8-8-----8-8----8-8--|
|-----9-9---9-9----9--9----9--9-|---9-9---9-9-----9-9----9-9--|
|-------------------------------|-----------------------------|
|-------------------------------|-----------------------------|
|-------------------------------|-----------------------------|


   E S S Q   Q    E  S  S    E S S Q      Q       E  S S
|----3-3-------------3----|----5-5-------------------5---|
|----5-5-------------5--5-|----5-5-------------------5-5-|
|----4-4-------------4--9-|----5-5-------------------5-5-|
|-----------------------9-|------------------------------|
|-------------------------|------------------------------|
|-------------------------|------------------------------|
|
|  W                         Q     Q      E  E    E  E
|-------------------------|------------------------------|
|-------------------------|------------------------------|
|-------------------------|-21---------------------------|
|-17----------------------|--------------19-21---19------|
|-19----------------------|-19-----------21-22---21-21---|
|-------------------------|-------------------------22---|
|
|  E E   E E E  E E  S  S    E S S E S S  E  S S  E  S S
|----7-----7---10---10-10-|----9-9---9-9-----8-8-----8-7-|
|----8-----8----8----8--8-|----8-8---8-8-----8-8-----8-8-|
|----9-----9----9----9--9-|----9-9---9-9-----9-9-----9-9-|
|-------------------------|------------------------------|
|-------------------------|------------------------------|
|-------------------------|------------------------------|


   E S S Q   Q       E  S  S
|----3-3----------------3----|
|----5-5----------------5--5-|
|----4-4----------------4--9-|
|--------------------------9-|
|----------------------------|
|----------------------------|
|
|  W
|----------------------------|
|----------------------------|
|----------------------------|
|----------------------------|
|-22-------------------------|
|-24-------------------------|
|
|  E E   E E E  S  S E  S  S
|----7-----7---10-10---10-10-|
|----8-----8----8--8----8--8-|
|----9-----9----9--9----9--9-|
|----------------------------|
|----------------------------|
|----------------------------|


  E S S Q      E S S  E S S
|---5-3----------5------5---|
|---5-5----------5-5----5-5-|
|---5-4----------5-9----5-4-|
|------------------9------5-|
|---------------------------|
|---------------------------|
|
| H            Q      Q
|---------------------------|
|---------------------------|
|---------------------------|
|---------------------------|
|-------------19-----21-----|
|-------------19-----22-----|
|
| E S S E S S  E S S  E S S
|---9-9---9-9----8-8----8-7-|
|---8-8---8-8----8-8----8-8-|
|---9-9---9-9----9-9----9-9-|
|---------------------------|
|---------------------------|
|---------------------------|


   E S S Q     Q     E S S   E S S Q     E S S E S S
|----3-3-------------------|---5-3---------5-----5----|
|----5-5---------------5-5-|---5-5---------5-5---5-5--|
|----4-4---------------4-9-|---5-4---------5-9---5-4--|
|----------------------5-9-|-----------------9-----5--|
|--------------------------|--------------------------|
|--------------------------|--------------------------|
|
|  W                         W
|--------------------------|--------------------------|
|--------------------------|--------------------------|
|--------------------------|--------------------------|
|--------------------------|--------------------------|
|-22-----------------------|--------------------------|
|-24-----------------------|--------------------------|
|
|  E S S E S S E S S E S S   E S S E S S E S S E S S
|----7-7---7-7---7-7---7-7-|---5-5---5-5---5-5---5-5--|
|----8-8---8-8---8-8---8-8-|---5-5---5-5---5-5---5-5--|
|----9-9---9-9---9-9---9-9-|---5-5---5-5---5-5---5-5--|
|--------------------------|--------------------------|
|--------------------------|--------------------------|
|--------------------------|--------------------------|


  E S S Q     Q     E S S    E S  S Q      Q       E S  S
|---3-3---------------3---|----3--3------------------3----|
|---5-5---------------5-5-|----5--5------------------5--5-|
|---4-4---------------4-9-|----4--4------------------4--9-|
|-----------------------9-|-----------------------------9-|
|-------------------------|-------------------------------|
|-------------------------|-------------------------------|
|
| W                          E S  S E  E   S  S E  E S  S
|-------------------------|-------------------------------|
|-------------------------|-------------------------------|
|-------------------------|----------------------------19-|
|-------------------------|-----------19-----21---22---21-|
|-------------------------|-21---22---21-----22---24------|
|-------------------------|-22---24-----------------------|
|
| E E   E S S E S S E S S    E E    E  S S E    E  E E
|---7-----7-7---7-7---7-7-|----7-------7-7------7----7----|
|---8-----8-8---8-8---8-8-|----8-------8-8------8----8----|
|---9-----9-9---9-9---9-9-|----9-------9-9------9----9----|
|-------------------------|-------------------------------|
|-------------------------|-------------------------------|
|-------------------------|-------------------------------|


    E  S S Q     Q   E S S
|------3-3-------------------|
|------5-5-------------5-5---|
|------4-4-------------4-9---|
|----------------------5-9---|
|----------------------------|
|----------------------------|
|
|  +W
|----------------------------|
|----------------------------|
|-(19)-----------------------|
|-(21)-----------------------|
|----------------------------|
|----------------------------|
|
|   E  S S E S S E E E E
|------7-7---7-7---7---7-----|
|------8-8---8-8---8---8-----|
|------9-9---9-9---9---9-----|
|----------------------------|
|----------------------------|
|----------------------------|


  E S S Q     E S S E S S   E S S Q    Q           E     S S
|---5-3---------5-----5---|----------------------------------|
|---5-5---------5-5---5-5-|---3-5------------------------3-5-|
|---5-4---------5-9---5-4-|---2-4------------------------2-4-|
|-----------------9-----5-|---4-0------------------------4-0-|
|-------------------------|----------------------------------|
|-------------------------|----------------------------------|
|
| W                         H          S  E.      +E     E
|-------------------------|----------------------------------|
|-------------------------|----------------------------------|
|-------------------------|----------------------------------|
|-------------------------|----------------------------------|
|-------------------------|-----------------------------17---|
|-------------------------|-----------17-19------(19)--------|
|
| E E   S S E E E   E E     E E   E E  E     S S   S  S  S S
|---5-----5-5---5-----5---|------------------------2---------|
|---5-----5-5---5-----5---|---7-----7--------7-----3--0--0-0-|
|---5-----5-5---5-----5---|---7-----7--------7-4---2--0--0-0-|
|-------------------------|---7-----7--------7-5---0--0--0-0-|
|-------------------------|---5-----5--------5-5------0--0-0-|
|-------------------------|--------------------5-------------|


    E   S S   Q      Q   E S S
|--------------------------------|
|-------3-5----------------3-5---|
|-------2-4----------------2-4---|
|-------4-0----------------4-0---|
|--------------------------------|
|--------------------------------|
|
|  +E   E    +E   E  H
|--------------------------------|
|--------------------------------|
|--------------------------------|
|------17---(17)-16-14-----------|
|-(17)------------0--------------|
|------19---(19)-17--------------|
|
|   E   E     E   E  E E E E
|-------2---------2----2---2-----|
|-------3---------3----3---3-----|
|-------2---------2----2---2-----|
|-------0---------0----0---0-----|
|--------------------------------|
|--------------------------------|


    E  S S Q   Q     E S S
|------8---------------8---|
|------8-8-------------8-5-|
|------9-9-------------9-9-|
|--------9---------------9-|
|--------------------------|
|--------------------------|
|
|  +H.               Q
|--------------------------|
|--------------------------|
|--------------------------|
|-(14)---------------------|
|--------------------------|
|--------------------------|
|
|   E  E   E E E S S E E
|--------------------------|
|------5-----5---5-----5---|
|------5-----5---5-4---5---|
|------5-----5---5-5---5---|
|------3-----3---3-5---3---|
|------------------5-------|


  E S S Q   E S S  E    S  S    H        E S S E S  S
|---7---------7---------7----|-------------8-----8----|
|---8-8-------8-5-------8----|-------------8-5---8----|
|---9-9-------9-9-------9--9-|-------------9-9---9--9-|
|-----9---------9----------9-|---------------9------9-|
|-------------------------10-|---------------------10-|
|----------------------------|------------------------|
|
| H         Q      S  S E      +W
|----------------------------|------------------------|
|----------------------------|------------------------|
|-----------------12-11-9----|-(9)--------------------|
|----------------------------|------------------------|
|----------------------------|------------------------|
|----------------------------|------------------------|
|
| E E   E E E S S  E    E       E  E E E E E   E S  S
|---3-----3-------------3----|------------------------|
|---5-----5---5-5-------5----|-----5---5---5-----5----|
|---4-----4---5-4-------4----|-----5---5---5-----5--4-|
|---------------5------------|-----5---5---5-----5--5-|
|----------------------------|-----3---3---3-----3--5-|
|----------------------------|----------------------5-|


  H       E S S E S  S   Q     E S S Q     E S S   Q   E S S Q   E S S
|-----------7-----7----|-------------------------|----------------------|
|-----------8-5---8----|---------8-8---------8-8-|-------8-8-------8-8--|
|-----------9-9---9--9-|---------7-7---------7-7-|-------7-7-------7-7--|
|-------------9------9-|---------9-9---------9-9-|-------9-9-------9-9--|
|-------------------10-|-------------------------|----------------------|
|----------------------|-------------------------|----------------------|
|
| Gtr IV
| E E E E E E   E S  S   E S S E E   E S S E E     E E E E   E E E E
|---3---3---3-----3----|---3-3---3-----3-3---3---|---3---3-----3---3----|
|---5---5---5-----5--5-|---3-3---3-----3-3---3---|---3---3-----3---3----|
|---4---4---4-----4--4-|---4-4---4-----4-4---4---|---4---4-----4---4----|
|--------------------5-|-------------------------|----------------------|
|----------------------|-------------------------|----------------------|
|----------------------|-------------------------|----------------------|


  Q   E S S Q   E S S   Q   E S S Q   E   S S   Q   E S S Q   E S S
|---------------------|-----------------------|-------------------0-|
|---------------------|-----------------------|-------8-8-------8-3-|
|-------7-7-------7-7-|-------7-7---------7-7-|-------9-9-------9-4-|
|-------7-7-------7-9-|-------7-7---------7-9-|-------9-9-------9---|
|-------9-9-------9-9-|-------9-9---------9-9-|---------------------|
|---------------------|-----------------------|---------------------|
|
| Gtr III
| W                     H         Q   S S E     W
|---------------------|-----------------------|---------------------|
|---------------------|-----------------------|-5-------------------|
|---------------------|-------------------7---|---------------------|
|---------------------|---------------7-9-----|---------------------|
|---------------------|-----------------------|---------------------|
|---------------------|-----------------------|---------------------|
|
| Gtr IV
| E E E E   E E E E     E E E E   E E E   E     E E E E   E E E E
|---2---2-----2---2---|---2---2-----2-----2---|---7---7-----7---7---|
|---3---3-----3---3---|---3---3-----3-----3---|---8---8-----8---8---|
|---2---2-----2---2---|---2---2-----2-----2---|---9---9-----9---9---|
|---0---0-----0---0---|---0---0-----0-----0---|---------------------|
|---------------------|-----------------------|---------------------|
|---------------------|-----------------------|---------------------|


  Q     E S S Q   E S S    Q    E S S Q   E S  S   Q     E S S Q     E S S
|---------5-3-------5-0-|------------------------|-------------------------|
|---------5-5-------5-3-|---------5-5-------5--3-|---------5-5---------5-3-|
|---------5-4-------5-4-|---------4-4-------4--4-|---------4-4---------4-4-|
|-----------------------|---------5-0-------5--0-|---------5-0---------5-0-|
|-----------------------|------------------------|-------------------------|
|-----------------------|------------------------|-------------------------|
|
| H           E E E E     +H.             Q        W
|-------------5-7-5-3---|-(3)--------------------|-------------------------|
|-------------7-8-7-5---|-(5)--------------------|-------------------------|
|-----------------------|------------------------|-------------------------|
|-----------------------|------------------------|-------------------------|
|-----------------------|------------------------|-------------------------|
|-----------------------|------------------------|-------------------------|
|
| E S S E E   E E E E      E  E E E   E E E S  S   E S S E S S E S S E S S
|---5-5---5-----5---5---|-----7---7-----7---7----|---7-7---7-7---7-7---7-7-|
|---5-5---5-----5---5---|-----8---8-----8---8----|---8-8---8-8---8-8---8-8-|
|---5-5---5-----5---5---|-----9---9-----9---9--9-|---9-9---9-9---9-9---9-9-|
|-----------------------|----------------------9-|-------------------------|
|-----------------------|---------------------10-|-------------------------|
|-----------------------|------------------------|-------------------------|


  Q   E S S Q    E  S S    E  S S E S S Q   E S S    E  S S Q   E  S S E  E
|-----------------------|-----5-5---5---------5---|-----3-5-----------------|
|-------5-5---------5-3-|-----5-5---5-5-------5-5-|-----5-5--------5-5----5-|
|-------4-4---------4-4-|-----5-5---5-4-------5-4-|-----4-5--------4-5----4-|
|-------5-0---------5-0-|-------------5---------5-|----------------5-0----5-|
|-----------------------|-------------------------|-------------------------|
|-----------------------|-------------------------|-------------------------|
|
| W                       +H            E E E E     +W
|-3---------------------|-(3)-----------5-7-5-3---|-(3)---------------------|
|-5---------------------|-(5)-----------7-8-7-5---|-(5)---------------------|
|-----------------------|-------------------------|-------------------------|
|-----------------------|-------------------------|-------------------------|
|-----------------------|-------------------------|-------------------------|
|-----------------------|-------------------------|-------------------------|
|
| E E E E   E  E E  E      E  E   E E   E E E E      E  E   E E E  E   E  E
|---7---7-----10---10---|-----9-----9-----8---8---|-----7-----7---10-----10-|
|---8---8------8----8---|-----8-----8-----8---8---|-----8-----8----8------8-|
|---9---9------9----9---|-----9-----9-----9---9---|-----9-----9----9------9-|
|-----------------------|-------------------------|-------------------------|
|-----------------------|-------------------------|-------------------------|
|-----------------------|-------------------------|-------------------------|


   Q    E S S E S S Q     E  S S E S S Q    E     S S
|---------5-3---5-0-----|----3-5----------------------|
|---------5-5---5-3-----|----5-5---5-5------------5---|
|---------5-4---5-4-----|----4-5---4-5------------4-4-|
|-----------------------|----------5-0------------5-5-|
|-----------------------|---------------------------5-|
|-----------------------|-----------------------------|
|
| +H          Q     Q     H.                S E.
|-(3)-------------------|-----------------------------|
|-(5)---------5-----7---|-8---------------------------|
|-----------------------|-------------------6-7-------|
|-----------------------|-9---------------------------|
|-----------------------|-----------------------------|
|-----------------------|-----------------------------|
|
|  E  E E E   E E   E E   E  E   E E   E  E E     E
|-----9---9-----8-----8-|----7-----7-----10------10---|
|-----8---8-----8-----8-|----8-----8------8-------8---|
|-----9---9-----9-----9-|----9-----9------9-------9---|
|-----------------------|-----------------------------|
|-----------------------|-----------------------------|
|-----------------------|-----------------------------|


  E S S E S S  Q    E S S
|---5-5---5---------------|
|---5-5---5-5---------5---|
|---5-5---5-5---------4---|
|---------------------5---|
|-------------------------|
|-------------------------|
|
| H           +Q.     E
|-------------------------|
|-5-----------(5)-----5---|
|-------------------------|
|-------------------------|
|-------------------------|
|-------------------------|
|
| E E   E E    E  E E E
|---9-----9-------8---8---|
|---8-----8-------8---8---|
|---9-----9-------9---9---|
|-------------------------|
|-------------------------|
|-------------------------|


  E S S Q   E  S S S S  S S
|---------------------------|
|---5-5--------5-----5--5---|
|---4-5--------4-4---4--4-4-|
|---5-0--------5-5---5--5-5-|
|----------------5--------5-|
|---------------------------|
|
| W
|---------------------------|
|---------------------------|
|---------------------------|
|---------------------------|
|---------------------------|
|---------------------------|
|
| E E   E E E  E   E    E
|---7-----7---10-------10---|
|---8-----8----8--------8---|
|---9-----9----9--------9---|
|---------------------------|
|---------------------------|
|---------------------------|


  Q   E S S E S S E    S S   Q     E S S E S S E S S
|-------5-3---5-0------5---|--------------------------|
|-------5-5---5-3------5-5-|---------5-5---5-3---5----|
|-------5-4---5-4------5-4-|---------4-4---4-4---4-4--|
|------------------------5-|---------5-0---5-0---5-5--|
|--------------------------|-----------------------5--|
|--------------------------|--------------------------|
|
| H         Q     S E.       H           Q     Q
|--------------------------|--------------------------|
|-----------------8--------|-8------------------------|
|--------------------------|--------------------------|
|-----------------7-9------|-------------9-----9------|
|--------------------------|--------------------------|
|--------------------------|--------------------------|
|
| E E E E   E E   E    E     E S S E E   E S S E E
|---9---9-----8--------8---|---7-7---7-----7-7---7----|
|---8---8-----8--------8---|---8-8---8-----8-8---8----|
|---9---9-----9--------9---|---9-9---9-----9-9---9----|
|--------------------------|--------------------------|
|--------------------------|--------------------------|
|--------------------------|--------------------------|


   Q          E   S  S   E   S  S  Q             Q        E S S   Q          E   S  S
|-----------------5--3-------5--0-------------|---------------------------------------|
|-----------------5--5-------5--3-------------|-------------5-5------------------5----|
|-----------------5--4-------5--4-------------|-------------4-4------------------4--4-|
|---------------------------------------------|-------------5-0------------------5--5-|
|---------------------------------------------|-------------------------------------5-|
|---------------------------------------------|---------------------------------------|
|
| +E   S  S  +E   S  S  +E   S  S  S  S  S  S    S  S  E  Q      +E   S  S  +E   S  S
|---------------------------------------------|---------------------------------------|
|---------------------------------------------|---------------------------------------|
|---------------------------------------------|---------------------------------------|
|-(9)-11-12-(12)-12-14-(14)-16-17-16-14-16-14-|-16-17---------------------------------|
|---------------------------------------------|----21-19-17-----(17)-17-19-(19)-19-21-|
|---------------------------------------------|---------------------------------------|
|
|  E   E      E   E      E   E     E     E       E     E  E E     E   E      E   E
|------5----------5----------5-----------5----|--------7----7---------7----------7----|
|------5----------5----------5-----------5----|--------8----8---------8----------8----|
|------5----------5----------5-----------5----|--------9----9---------9----------9----|
|---------------------------------------------|---------------------------------------|
|---------------------------------------------|---------------------------------------|
|---------------------------------------------|---------------------------------------|


    Q         E     S  S  Q         E     S  S
|----------------------------------------------|
|-------------------5--5------------------5----|
|-------------------4--4------------------4--4-|
|-------------------5--0------------------5--5-|
|--------------------------------------------5-|
|----------------------------------------------|
|
|  +E   S  S  S  S  S  S  Q.              E
|----------------------------------------------|
|----------------------------------------------|
|----------------------------------------------|
|----------------------------------------------|
|-(21)-21-22-21-22-21-22-24--------------24----|
|----------------------------------------------|
|
|   E   E     E     E     E   S  S  S  S  S  S
|-------7-----------7--------------------------|
|-------8-----------8--------------------------|
|-------9-----------9---------9--9--9--9--9--9-|
|-----------------------------9--9--9--9--9--9-|
|----------------------------10-10-10-10-10-10-|
|----------------------------------------------|


    Q       E   S S  Q    E  S S    Q        E S S   Q         E     S  S
|--------------------------------|-------------5---------------------5----|
|---------------5-5----------5---|-------------5-5-------------------5--5-|
|---------------4-4----------4-4-|-------------5-9-------------------5--4-|
|---------------5-0----------5-5-|---------------9----------------------5-|
|------------------------------5-|----------------------------------------|
|--------------------------------|----------------------------------------|
|
|  +E   E  +E   E    Q.      E      S  S  E  Q      +E   S  S  S  S  S  S
|--------------------------------|----------------------------------------|
|--------------------------------|----------------------------------------|
|--------------------------------|----------------------------------------|
|-------------------21------19---|-19-17-17-17-----(17)-17-19----17-19-21-|
|-(24)-24-(24)-24----------------|----19-------------------22-19----------|
|--------------------------------|----------------------------------------|
|
|   E   E   E   E    E  E E  E      E     E  E E     E   E     E     E
|-------7-------7-------7----7---|--------5----5---------5-----------5----|
|-------8-------8-------8----8---|--------5----5---------5-----------5----|
|-------9-------9-------9----9---|--------5----5---------5-----------5----|
|--------------------------------|----------------------------------------|
|--------------------------------|----------------------------------------|
|--------------------------------|----------------------------------------|


   Q           E S S   Q      E     S  S
|----------------2------------------2-----|
|----------------3-5----------------3--0--|
|----------------2-4----------------2--0--|
|------------------0-------------------0--|
|-----------------------------------------|
|-----------------------------------------|
|
|  S  S  S  S  Q      +E   E  S  S  S  S
|-----------------------------------------|
|-------------------------17-17-15-15-15--|
|-21-19----21-19-----(19)-----------------|
|-------21--------------------------------|
|-------24--------------------------------|
|-----------------------------------------|
|
|  E     E     E E     E   E  E     E
|-----------------------------------------|
|--------7-------7---------7--------7-----|
|--------7-------7---------7--------7-----|
|--------7-------7---------7--------7-----|
|--------5-------5---------5--------5-----|
|-----------------------------------------|


    Q         E     S S  Q           E     S  S
|-------------------2----------------------2----|
|-------------------3-5--------------------3--0-|
|-------------------2-4--------------------2--0-|
|---------------------0-----------------------0-|
|-----------------------------------------------|
|-----------------------------------------------|
|
|  +E   S  S  S  S  E    S  S  S  S  S  S  S  S
|-----------------------17-------------------17-|
|-(15)----15-17-17-15---------15----17----17----|
|------16------------------16----------16-------|
|-----------------------------------14----14----|
|--------------------------------14----14-------|
|-----------------------------------------------|
|
|   E   E     E     E    E     E     E     E
|-----------------------------------------------|
|-------7-----------7----------7-----------7----|
|-------7-----------7----------7-----------7----|
|-------7-----------7----------7-----------7----|
|-------5-----------5----------5-----------5----|
|-----------------------------------------------|


   Q   E S S  Q    E  S  S    Q         E   S  S  Q           E     S  S
|--------5------------5----|----------------------------------------3----|
|--------5-5----------5--5-|----------------5--5--------------------5--5-|
|--------5-9----------5--4-|----------------4--4--------------------4--4-|
|----------9-------------5-|----------------5--0-----------------------5-|
|--------------------------|---------------------------------------------|
|--------------------------|---------------------------------------------|
|
|  H          Q    E  S  S    S  E.    +E   S  S  S  S  S  S  S  S  S  S
|--------------------------|------------------17-------------------------|
|-22---------22---22-22----|-20------------19----19----19-20-19-20-19-20-|
|--------------------24-21-|----21----(21)----------19-------------------|
|--------------------------|---------------------------------------------|
|--------------------------|---------------------------------------------|
|-24-----------------------|---------------------------------------------|
|
|  E E E E    E E  E  E       E     E   E   E     E     E     E     E
|--------------------------|--------3-------3-----------3-----------3----|
|----5---5------5-----5----|--------5-------5-----------5-----------5----|
|----5---5------5-----5----|--------4-------4-----------4-----------4----|
|----5---5------5-----5----|---------------------------------------------|
|--------------------------|---------------------------------------------|
|----8---8------8-----8----|---------------------------------------------|


   Q        E S S   Q         E     S S
|-------------5---------------------5---|
|-------------5-5---------------------5-|
|-------------5-9-----------------------|
|---------------9-----------------------|
|---------------------------------------|
|---------------------------------------|
|
|  S  S  E  Q      +E   S  S  S  S  E
|---------------------------------------|
|-19-20-19-20-----(20)-19-20-19----17---|
|-------------------------------19------|
|---------------------------------------|
|---------------------------------------|
|---------------------------------------|
|
|  E     E  E E     E   E     E     E
|---------------------------------------|
|--------5----5---------5-----------5---|
|--------5----5---------5-----------5---|
|--------5----5---------5-----------5---|
|--------3----3---------3-----------3---|
|---------------------------------------|


   Q   E S S   E   S S  E  S  S    Q   E S S  E  S S  E  S S
|-------------------------------|--------3-------3-------3-----|
|--------5-5-------5-------5----|--------3-5-----3-5-----3-5---|
|--------4-4-------4-4-----4--4-|--------4-9-----4-4-----4-4---|
|--------5-0-------5-5-----5--5-|----------9-------5-------5---|
|--------------------5--------5-|------------------------------|
|-------------------------------|------------------------------|
|
|  H          +E   E    E  S  S    Q   Q      E  E    E  E
|-------------------------------|------------24----------------|
|-17---------(17)-17---17-15----|-17-----------------17-15-----|
|-----------------17---17----16-|-19---------21-19-------------|
|-------------------------------|------------------------------|
|-------------------------------|------------------------------|
|-------------------------------|------------------------------|
|
|  E E E E     E   E    E  E       E E E E    E  E    E  E
|----3---3---------3-------3----|----3---3-------3-------3-----|
|----5---5---------5-------5----|----3---3-------3-------3-----|
|----4---4---------4-------4----|----4---4-------4-------4-----|
|-------------------------------|------------------------------|
|-------------------------------|------------------------------|
|-------------------------------|------------------------------|


   Q    E  S S  E S S  E S S    Q     E S  S  E     S  S  E  S S
|----------3------3------3---|----------2-----------2--------2---|
|----------3-5----3-5----3-5-|----------3--5--------3--0-----3-0-|
|----------4-9----4-4----4-4-|----------2--4--------2--0-----2-0-|
|------------9------5------5-|-------------0-----------0-------0-|
|----------------------------|-----------------------------------|
|----------------------------|-----------------------------------|
|
|  Q.      E    Q      Q        Q..        S  S  S  S  S  E  E
|---------17-----------------|------------------------------17---|
|-17-----------17-----17-----|-17---------17-17-17-15----15-17---|
|----------------------------|------------------------16---------|
|----------------------------|-----------------------------------|
|----------------------------|-----------------------------------|
|----------------------------|-----------------------------------|
|
|  E  E E  E    E E    E E      E   E E E     E     E     E  E
|-----3----3------3------3---|------2---2-----------2--------2---|
|-----3----3------3------3---|------3---3-----------3--------3---|
|-----4----4------4------4---|------2---2-----------2--------2---|
|----------------------------|------0---0-----------0--------0---|
|----------------------------|-----------------------------------|
|----------------------------|-----------------------------------|


    Q    E S S  E S S  E  S S
|----------2------2-------2---|
|----------3-5----3-0-----3-0-|
|----------2-4----2-0-----2-0-|
|------------0------0-------0-|
|-----------------------------|
|-----------------------------|
|
|  +Q    Q      Q      E  E
|-(17)---------17-----15------|
|-(17)-------------------17---|
|-----------------------------|
|-----------------------------|
|-----------------------------|
|-----------------------------|
|
|   E  E E E    E E    E  E
|------2---2------2-------2---|
|------3---3------3-------3---|
|------2---2------2-------2---|
|------0---0------0-------0---|
|-----------------------------|
|-----------------------------|


   Q   E S S Q   E S S     Q      E S S Q   E S S   Q   E S S Q   E S  S
|--------3-3-------3-0-|------------5-3-------5-0-|----------------------|
|--------5-5-------5-3-|------------5-5-------5-3-|-------5-5-------5--3-|
|--------4-4-------4-4-|------------5-4-------5-4-|-------4-4-------4--4-|
|----------------------|--------------------------|-------5-0-------5--0-|
|----------------------|--------------------------|----------------------|
|----------------------|--------------------------|----------------------|
|
|  W                      +W                        W
|-19-------------------|-(19)---------------------|----------------------|
|----------------------|--------------------------|----------------------|
|-16-------------------|-(16)---------------------|----------------------|
|----------------------|--------------------------|----------------------|
|----------------------|--------------------------|----------------------|
|----------------------|--------------------------|----------------------|
|
|  E E E E   E E E E       E  S S E E   E E E E     E E E E   E E E S  S
|----7---7-----7---7---|------5-5---5-----5---5---|---7---7-----7---7----|
|----8---8-----8---8---|------5-5---5-----5---5---|---8---8-----8---8----|
|----9---9-----9---9---|------5-5---5-----5---5---|---9---9-----9---9--9-|
|----------------------|--------------------------|--------------------9-|
|----------------------|--------------------------|-------------------10-|
|----------------------|--------------------------|----------------------|


  Q      E S S  Q       E  S S    W
|------------------------------|--------------------|
|----------5-5-------------5-3-|--------------------|
|----------4-4-------------4-4-|--------------------|
|----------5-0-------------5-0-|--------------------|
|------------------------------|--------------------|
|------------------------------|--------------------|
|
| Q      Q      E  E    E  E      W
|------------------------------|--------------------|
|------------------------------|--------------------|
|------------------------------|-12-----------------|
|-------14-----12-14---12-12---|-14-----------------|
|------------------------------|--------------------|
|------------------------------|--------------------|
|
| E S S  E S S  E  S S  E  S S    E E E E E  E E  E
|---7-7----7-7-----7-7-----7-7-|----7---7---10---10-|
|---8-8----8-8-----8-8-----8-8-|----8---8----8----8-|
|---9-9----9-9-----9-9-----9-9-|----9---9----9----9-|
|------------------------------|--------------------|
|------------------------------|--------------------|
|------------------------------|--------------------|


    W                        E S S H        Q
|-------------------------|-----------------------|
|-------------------------|-----------------------|
|-------------------------|-----------------------|
|-------------------------|-----------------------|
|-------------------------|------0-2--------------|
|-------------------------|-----------------------|
|
|  +Q     Q    E  E  E  E    W
|-------------------------|-----------------------|
|----------------12-10----|-----------------------|
|-(12)--------14-12-11-11-|-12--------------------|
|-(14)---14---16-------12-|-14--------------------|
|-------------------------|-----------------------|
|-------------------------|-----------------------|
|
|   E  E  E E  E  E  E  E    E E   E E E  E E  E
|------9----9-----8-----8-|----7-----7---10---10--|
|------8----8-----8-----8-|----8-----8----8----8--|
|------9----9-----9-----9-|----9-----9----9----9--|
|-------------------------|-----------------------|
|-------------------------|-----------------------|
|-------------------------|-----------------------|


    E  E E E  E E  S S E    H.            Q
|------------------------|---------------------|
|------------------------|---------------------|
|------------------------|---------------------|
|------------------------|---------------------|
|----------0--2----0-0---|---------------------|
|------0-3----5--------3-|--0------------------|
|
|  +Q    Q    Q    Q        W
|------------------------|---------------------|
|------------------------|---------------------|
|-(12)-------------------|---------------------|
|-(14)-------14---16-----|-17------------------|
|------------14---17-----|-19------------------|
|------------------------|---------------------|
|
|   E  E E E  E E  E   E    E  E E E E  E E  E
|------9---9----8------8-|-----7---7---10---10-|
|------8---8----8------8-|-----8---8----8----8-|
|------9---9----9------9-|-----9---9----9----9-|
|------------------------|---------------------|
|------------------------|---------------------|
|------------------------|---------------------|


    E  S S  E E  Q     S S  E    E.   S H        Q
|-----------------------------|-----------------------|
|-----------------------------|-----------------------|
|-----------------------------|-----------------------|
|------2-2--2-----------------|-----------------------|
|----------------------0-2--0-|---------0-------------|
|-----------------------------|--0----3---------------|
|
|  +Q       Q    E  E  E    E    W
|-----------------------------|-----------------------|
|-----------------------------|-----------------------|
|-----------------------------|-----------------------|
|-(17)----------19-21-19------|-----------------------|
|-(19)-----19---21-22-21---21-|-22--------------------|
|--------------------------22-|-24--------------------|
|
|   E  E    E E  E  E  E    E    E  E   E E E  E E  E
|------9------9-----8-------8-|-----7-----7---10---10-|
|------8------8-----8-------8-|-----8-----8----8----8-|
|------9------9-----9-------9-|-----9-----9----9----9-|
|-----------------------------|-----------------------|
|-----------------------------|-----------------------|
|-----------------------------|-----------------------|


    E  S S  E E  S S S S  S S E    H.           Q
|-------------------------------|-------------------|
|-------------------------------|-------------------|
|-------------------------------|-------------------|
|----------------0-0------------|-------------------|
|-----------0-2-------------5---|-------------------|
|------0-3-----------3--------7-|--0----------------|
|
|  +Q       Q    Q        Q        W
|-------------------------------|-------------------|
|-------------------------------|-------------------|
|-------------------------------|-------------------|
|---------------17-------19-----|-17----------------|
|-(22)----------17-------19-----|-19----------------|
|-(24)-----19-------------------|-------------------|
|
|   E  E    E E  E   E    E   E    E  E E E E E E E
|------9------9------8--------8-|-----7---7---7---7-|
|------8------8------8--------8-|-----8---8---8---8-|
|------9------9------9--------9-|-----9---9---9---9-|
|-------------------------------|-------------------|
|-------------------------------|-------------------|
|-------------------------------|-------------------|


    S  S S S  E.   S  Q     S S  E
|-----------------------------------|
|-----------------------------------|
|-----------------------------------|
|-----------------------------------|
|---7--7---7--7----7-------------5--|
|---------------------------5-7-----|
|
|  +Q         Q       E  E  E    E
|-----------------------------------|
|-----------------------------------|
|-----------------------------------|
|-(17)---------------19-21-19-------|
|-(19)-------19------21-22-21---21--|
|-------------------------------22--|
|
|   E    E    E  E    E  E  E    E
|--------7-------7-------7-------7--|
|--------8-------8-------8-------8--|
|--------9-------9-------9-------9--|
|-----------------------------------|
|-----------------------------------|
|-----------------------------------|


   E S S H       Q       E  S S  Q   Q   Q
|--------------------|-----------------------*|
|--------------------|-----------------------*|
|--------------------|-----------------------*|
|--------------------|-----------------------*|
|--------------------|-----------0---2---0---*|
|------0-0-----------|------0-3--------------*|
|
|  W                    +Q       Q   Q   Q
|--------------------|-----------------------*|
|--------------------|-------------------3---*|
|--------------------|---------------4-------*|
|--------------------|-----------------------*|
|-22-----------------|-(22)------------------*|
|-24-----------------|-(24)-----24-----------*|
|
|  E E   E E E E E E     E  E    E E E E E E
|----7-----7---7---7-|------7------7---7---7-*|
|----8-----8---8---8-|------8------8---8---8-*|
|----9-----9---9---9-|------9------9---9---9-*|
|--------------------|-----------------------*|
|--------------------|-----------------------*|
|--------------------|-----------------------*|


Duration Legend
---------------
W - whole; H - half; Q - quarter; E - 8th; S - 16th; T - 32nd; X - 64th; a - acciaccatura
+ - note tied to previous; . - note dotted; .. - note double dotted
Uncapitalized letters represent notes that are staccato (1/2 duration)
Irregular groupings are notated above the duration line
Duration letters will always appear directly above the note/fret number it represents the
duration for.  Duration letters with no fret number below them represent rests.  Multi-
bar rests are notated in the form Wxn, where n is the number of bars to rest for.  Low
melody durations appear below the staff

Tablature Legend
----------------
 h   - hammer-on
 p   - pull-off
 b   - bend
 pb  - pre-bend
 r   - bend release (if no number after the r, then release immediately)
 /\  - slide into or out of (from/to "nowhere")
 s   - legato slide
 S   - shift slide
  - natural harmonic
[n]  - artificial harmonic
n(n) - tapped harmonic
 ~   - vibrato
 tr  - trill
 T   - tap
 TP  - trem. picking
 PM  - palm muting
\n/  - tremolo bar dip; n = amount to dip
 \n  - tremolo bar down
 n/  - tremolo bar up
/n\  - tremolo bar inverted dip
 =   - hold bend; also acts as connecting device for hammers/pulls
 <>  - volume swell (louder/softer)
 x   - on rhythm slash represents muted slash
 o   - on rhythm slash represents single note slash

Misc Legend
-----------
 |  - bar
||  - double bar
||o - repeat start
o|| - repeat end
*|  - double bar (ending)
 :  - bar (freetime)
 $  - Segno
 &  - Coda
Tempo markers -  = BPM(8/16=s8/s16), where s8 = swing 8ths, s16 = swing 16ths
 
 
Bob Marley - Concrete Jungle Tab :: indexed at Ultimate Guitar.
Concrete Jungle tabs @ 911Tabs

About the artist behind Concrete Jungle Tab:

Robert "Bob" Nesta Marley OM (February 6, 1945 – May 11, 1981) was a Jamaican musician, singer-songwriter, and Rastafarian. He was the lead singer, songwriter and guitarist for the ska, rocksteady and reggae bands: The Wailers (1964 – 1974) and Bob Marley & the Wailers (1974 – 1981). Marley died nearly thirty years ago, but remains the most widely known and revered performer of ska/reggae music, and is credited for helping spread Jamaican music to the worldwide audience.[1]

Marley's best known hits includes "I Shot the Sheriff", "No Woman, No Cry", "Exodus", "Could You Be Loved", "Stir It Up", "Jamming", "Redemption Song", "One Love" and, together with The Wailers, ""Three Little Birds".,[2] as well as the posthumous releases "Buffalo Soldier" and "Iron Lion Zion". The compilation album, Legend, released in 1984, three years after his death, is the best-selling reggae album ever (10 times platinum[3]), with sales of more than 12 million copies.[2]

Indexed at Wikipedia.

Show us your talent, perform Concrete Jungle Tab!

Here you can post a video or audio performance. Tell me more ...
Where can we find your performance? Tell me more ...
Your comment:
Please, log in to post your performance.