Artists by letter: A B C D E F G H I J K L M N O P Q R S T U V W X Y Z 0-9

 
Wild Ones Chords
-------------------------------------------------------------------------------
                           WILD ONES - You Me At Six
-------------------------------------------------------------------------------




E|--------------------------------------------------------------------------|
B|--------------------------------------------------------------------------|
G|----2------------2------------2------------2------------------------------|
D|-0-0-0--------0-0-0--------0-0-0--------0-0-0-----------------------------|
A|--------------------------------------------------------------------------|
E|--------------------------------------------------------------------------|


E|--------------------------------------------------------------------------|
B|--------------------------------------------------------------------------|
G|-----2---------------2----------------------------------------------------|
D|-0-0---0-0-0-0-0---------------------0---------------0--------------------|
A|-----------------4-4---4-4-4-4-4------------------------------------------|
E|---------------------------------3-3---3-3-3-3-3-3-3---3-3-3-3-3----------| x2

(keep playing tabs or the following chords)

        D Asus4/C#         G
I wanna be,        I wanna be wherever you are
        D Asus4/C#         G
I was around,      I was around from the start
          D Asus4/C#     G
I've got you in     my sights
        D Asus4/C#                 G
I want you there the rest of the night 
             Bm
And I'll say


                           A
Are we gonna live forever?
                             Bm
Are we gonna live forever, no
                           A
Are we gonna live forever?
                             D
Are we gonna live forever, no


(tabs or chords)

         Asus4/C#  G                             D
I'll tie myself,     I'll tie myself all into knots
        Asus4/C#  G                                  D
I get so lost,      yeah I feel so lost in my own skin
             Asus4/C#               G
It might take time, it might take faith
                                      D
The things we build, they'll never break
                Asus4/C#               G
And there's some nights we're worlds apart
                       Bm
Not this time, no goodbyes


                           A
Are we gonna live forever?
                             Bm
Are we gonna live forever, no
                           A
Are we gonna live forever?
                    
Are we gonna live forever


            D     G              D     A
We're the wild ones, we're the wild ones
              D                          G
When you're gone, there's no one to lean on
     Bm      A
It's me, myself
               D      G             D      A
And we're the wild ones, we're the wild ones
              D                          G
When you're gone, there's no one to lean on
     Bm      A       D
It's me, myself, and I



D     Asus4/C#        G
You and I will go so far
                           D
You and I will light the dark
          Asus4/C#        G
You're the better half of me
                          Bm
You're the only half I need


                           A
Are we gonna live forever?
                             Bm
Are we gonna live forever, no
                           A
Are we gonna live forever?
                            D
Are we gonna live forever, no  


E|-----3-3-3-2-2-2-2-2-2-2-2-2-2-2-2-2-3-3-3-2-2-2-5-5-5-5-5-5-5-5-5-5------|
B|--------------------------------------------------------------------------|
G|--------------------------------------------------------------------------|
D|--------------------------------------------------------------------------|
A|--------------------------------------------------------------------------|
E|--------------------------------------------------------------------------|

E|-----3-3-3-2-2-2-2-2-2-2-2-2-2-2-2-2-3-3-3-2-2-2-0-0-0-0-0-0-0-0-0-0------|
B|--------------------------------------------------------------------------|
G|--------------------------------------------------------------------------|
D|--------------------------------------------------------------------------|
A|--------------------------------------------------------------------------|
E|--------------------------------------------------------------------------|

or 

D D Dsus4 D D 

D D Dsus4 D A 


           D      G             D      A
We're the wild ones, we're the wild ones
             D                           G
When you're gone, there's no one to lean on
     Bm      A
It's me, myself
                D     G              D     A
And we're the wild ones, we're the wild ones
             D                           G
When you're gone, there's no one to lean on
     Bm      A       D
It's me, myself, and I


(play a D throughout the song) 
Are we gonna live forever?
Are we gonna live forever?
Are we gonna live forever?
Are we gonna live forever?
Are we gonna live forever?
Are we gonna live forever?
Are we gonna live forever?
Are we gonna live forever?


 
 
You Me At Six - Wild Ones Chords :: indexed at Ultimate Guitar.
Wild Ones tabs @ 911Tabs

Quick tip, so you can enjoy Wild Ones Chords even more:

Try out the AutoScroller option ... It scrolls the page for you, so you can totally focus on nailing that solo. You can choose among different speeds using your mouse or your keyboard (keys 0, 1, 2 and 3).

Show us your talent, perform Wild Ones Chords!

Here you can post a video or audio performance. Tell me more ...
Where can we find your performance? Tell me more ...
Your comment:
Please, log in to post your performance.