Artists by letter: A B C D E F G H I J K L M N O P Q R S T U V W X Y Z 0-9

 
Safer To Hate Her Tab
TITLE: Safer To Hate Her
ARTIST: You Me At Six
TUNING: Drop D
SPECIAL NOTES: E is 11th Fret in power chords

Intro Rhythm [1]
Intro Lead #1 [1]
Intro Lead #2 [2]
Verse [3] [2]
Verse Lead [4] [x]
Chorus [2] [4]
Chorus Lead [4] [8]
Bridge [4]
Bridge Lead [2]
Bridge Lead #2 [2]
Outro Part 1 [1]
Outro Part 1 Lead [1]
Outro Part 2 [Chorus + Lead]
Outro Part 3 [Intro]


                Intro Rhythm
|-----------------------------------------------------------------------------------|
|-----------------------------------------------------------------------------------|
|-----------------------------------------------------------------------------------|
|-----------------------------------------------------------------------------------|
|--2-2--0-0--0-0--5-5-----0-0--0-0--2-2--5-5-5--0-0-0-------------------------------|
|--2-2--0-0--0-0--5-5-----0-0--0-0--2-2--5-5-5--0-0-0-------------------------------|

                Intro Lead #1
|-------------------------------------------------------------------|
|-------------------------------------------------------------------|
|----------------------12-11----------11-12----12-11----------------|
|----------------------------12----12----------------12-------------|
|--10-9------9-10-12--------------------------------------10-9------|
|-------12-----------------------------------------------------12---|

                Intro Lead #2
|------------------------------E=11th-fret------------------------------------------|
|------------------------------------------------------------------------------7----|
|-141414141414-121212-EEE-99999-99999/E--141414141414-121212-EEE-99999-99999/E\7----|
|------------------------------------------------------------------------------7----|
|-121212121212-101010-999-77777-77777/9--121212121212-101010-999-77777-77777/9\5----|
|-----------------------------------------------------------------------------------|

                Verse Rhythm
|-----------9----7--------------------|
|-7----7---10----x--------------------|
|-7----7---11----9--------------------|
|-7----7---11----7--------------------|
|-5----5----9----7--------------------|
|-------------------------------------|  

                Verse Lead
|-------------------------------------|
|-----7-----7---7------8-----8--------|
|-7-7---7-7---7---7-7----7-7---7-8----|
|-------------------------------------|
|-------------------------------------|
|-------------------------------------| 

                Chorus Rhythm
|------------------------------E=11th-fret------------------------------------------|
|-----------------------------------------------------------------------------------|
|-141414141414-121212-EEE-99999-99999/E--141414141414-121212-EEE-99999-99999/E------|
|-----------------------------------------------------------------------------------|
|-121212121212-101010-999-77777-77777/9--121212121212-101010-999-77777-77777/9------|
|-----------------------------------------------------------------------------------|

                Chorus Lead
|-------------------------------------|
|-------------------------------------|
|---7/9/E\9---7-----------------------|
|-------------------------------------|
|---5/7/9\7---5-----------------------|
|-------------------------------------|

  Chorus Rhythm (Optional 3rd section)
|-------------------------------------|
|-------------------------------------|
|-77777777-EEEEEEEE-99999999----------|
|-55555555-99999999-77777777----------|
|-55555555-99999999-77777777----------|
|-55555555-99999999-77777777----------|

                Bridge Rhythm
|-------------------------------------|
|------777----------------------------|
|------777----------------------------|
|------555----------------------------|
|-555------555---5-4-2-0--------------|
|-555------555---5-4-2-0--------------|

                Bridge Lead #1
|-------------------------------------|
|-------------------------------------|
|---5-----5-----5---------------------|
|-----7-----7-----7-------------------|
|-------7-----7-----7--0--------------|
|----------------------0--------------|

                Bridge Lead #2
|-----10-----10-----10----------------|
|-7-8----7-8----7-8----8-7------------|
|--------------------------9-7--------|
|-------------------------------------|
|-------------------------------------|
|-------------------------------------|
|-------------------------------------|

                Outro Rhythm #1
|-------------------------------------|
|-------------------------------------|
|-------------------------------------|
|-------------------------------------|
|--55555-99999-77777-77777------------|
|--55555-99999-77777-77777------------| 

                Outro Lead #1
|-------------------------------------|
|-------------------------------------|
|-------------------------------------|
|---14141414-14/16--------------------|
|---12121212-12/14--------------------|
|-------------------------------------| 

                Outro Rhythm #2
|------------------------------E=11th-fret------------------------------------------|
|-----------------------------------------------------------------------------------|
|-141414141414-121212-EEE-99999-99999/E--141414141414-121212-EEE-99999-99999/E------|
|-----------------------------------------------------------------------------------|
|-121212121212-101010-999-77777-77777/9--121212121212-101010-999-77777-77777/9------|
|-----------------------------------------------------------------------------------|

                Outro Lead #2
|-------------------------------------|
|-------------------------------------|
|---7/9/E\9---7-----------------------|
|-------------------------------------|
|---5/7/9\7---5-----------------------|
|-------------------------------------|

                Outro Rhythm #3
|-----------------------------------------------------------------------------------|
|-----------------------------------------------------------------------------------|
|-----------------------------------------------------------------------------------|
|-----------------------------------------------------------------------------------|
|--2-2--0-0--0-0--5-5-----0-0--0-0--2-2--5-5-5--0-0-0-------------------------------|
|--2-2--0-0--0-0--5-5-----0-0--0-0--2-2--5-5-5--0-0-0-------------------------------|

                Outro Lead #3
|-------------------------------------------------------------------|
|-------------------------------------------------------------------|
|----------------------12-11----------11-12----12-11----------------|
|----------------------------12----12----------------12-------------|
|--10-9------9-10-12--------------------------------------10-9------|
|-------12-----------------------------------------------------12---|

 
 
You Me At Six - Safer To Hate Her Tab :: indexed at Ultimate Guitar.
Safer To Hate Her tabs @ 911Tabs

Quick tip, so you can enjoy Safer To Hate Her Tab even more:

After the registration (which takes just 10 seconds, remember?) you will be able to use your profile - your very own piece of YourChords.com.

Show us your talent, perform Safer To Hate Her Tab!

Here you can post a video or audio performance. Tell me more ...
Where can we find your performance? Tell me more ...
Your comment:
Please, log in to post your performance.