Artists by letter: A B C D E F G H I J K L M N O P Q R S T U V W X Y Z 0-9

 
Room To Breathe Tab
-------------------------------------------------------------------------------
                             Room To Breathe - You Me At Six
-------------------------------------------------------------------------------
Tabbed by: AllHailTheKing!


Tuning: Drop D though you can play this in standard too, i just find it easier in drop D

Intro Part 1

Guitar 1
e|-----------------------------------------------------------------------------------|
B|-----------------------------------------------------------------------------------|
G|--------------------------------------------------------------4---4----4----4--4---|
D|-------4----4----4---4--4---------4----4----4----4--4------------------------------|
A|-----------------------------0-0-0--0-0--0-0--0-0--0--0----------------------------|
D|-4-4-4--4-4--4-4--4-4--4--4-----------------------------2-2-2--2-2--2-2--2-2--2--2-|

e|-----------------------------------------------------------------------------------|
B|-----------------------------------------------------------------------------------|
G|------4----4----4----4--4----------------------------------------------------------|
D|-----------------------------------------------------------------------------------|
A|-2-2-2--2-2--2-2--2-2--2--2--------------------------------------------------------|
D|-----------------------------------------------------------------------------------|


Guitar 2
e|-------------------|
B|-------------------|
G|-------------------|
D|-4~---7~---2~---9~-|
A|-4~---7~---2~---9~-|
D|-4~---7~---2~---9~-|


Intro Part 2

Guitar 1
e|-x-x----------------------------------------------------------------------------------------|
B|-x-x-------------------7-7-7-7-5-5-5-5-5-5-5-5-5-5-5-5-5-7-7-7-7-5-5-5-5-5-5-5-5-5-5-5-5-5--|
G|-x-x----------------------------------------------------------------------------------------|
D|-x-x-4-4-4-4-4-4-4-4-4----------------------------------------------------------------------|
A|-x-x-4-4-4-4-4-4-4-4-4----------------------------------------------------------------------|
D|-x-x-4-4-4-4-4-4-4-4-4----------------------------------------------------------------------|

e|--------------------------------------------------------------------------------------------|
B|7-7-7-7-------------------------------------------7-7-7-7-5-5-5-5-5-5-5-5-5-5-5-5-5---------|
G|-------4-4-4-4-4-4-4-4-4-4-4-4-4------------------------------------------------------------|
D|---------------------------------6-6-6-7-7-7-4-4-4------------------------------------------|
A|--------------------------------------------------------------------------------------------|
D|--------------------------------------------------------------------------------------------| 

e|--------------------------------------------------------------------------------------------|
B|7-7-7-7-5-5-5-5-5-5-5-5-5-5-5-5-5-7-7-7-7---------------------------------------------------|
G|-----------------------------------------4-4-4-4-4-4-4-4-4-4-4-4-4--------------------------|
D|--------------------------------------------------------------------------------------------|
A|--------------------------------------------------------------------------------------------|
D|--------------------------------------------------------------------------------------------|

Guitar 2 (Strum at the beat of the song)
e|-----------------------------------------------------------------------|
B|-----------------------------------------------------------------------|
G|-----------------------------------------------------------------------|
D|---4-4-4-4-4-4-4-4-7-7-7-7-7-7-7-7-2-2-2-2-2-2-2-2-9-9-9-9-9-9-9-9-----|
A|-:-4-4-4-4-4-4-4-4-7-7-7-7-7-7-7-7-2-2-2-2-2-2-2-2-9-9-9-9-9-9-9-9-:x2-|
D|---4-4-4-4-4-4-4-4-7-7-7-7-7-7-7-7-2-2-2-2-2-2-2-2-9-9-9-9-9-9-9-9-----|

Verse

Guitar 1
e|-----------------------------12~---------------|
B|-:---10--14~---10--14~---10--------10--12~-:x2-|
G|---11--11----11--11----11--11----11--11--------|
D|-----------------------------------------------|
A|-----------------------------------------------|
D|-----------------------------------------------|

Guitar 2 (I'm not sure if guitar 2 plays past the 4 barre but it still works for this verse)
e|------------------------|
B|------------------------|
G|------------------------|
D|---4~---7~---2~---9~----|
A|-:-4~---7~---2~---9~-:x2|
D|---4~---7~---2~---9~----|


Chorus

e|-x-x-x-x----------------------------------------------------------------------------------------|
B|-x-x-x-x-------------------7-7-7-7-5-5-5-5-5-5-5-5-5-5-5-5-5-7-7-7-7-5-5-5-5-5-5-5-5-5-5-5-5-5--|
G|-x-x-x-x----------------------------------------------------------------------------------------|
D|-x-x-x-x-4-4-4-4-4-4-4-4-4----------------------------------------------------------------------|
A|-x-x-x-x-4-4-4-4-4-4-4-4-4----------------------------------------------------------------------|
D|-x-x-x-x-4-4-4-4-4-4-4-4-4----------------------------------------------------------------------|

e|------------------------------------------------------------------------------------------------|
B|7-7-7-7-------------------------------------------7-7-7-7-5-5-5-5-5-5-5-5-5-5-5-5-5-------------|
G|-------4-4-4-4-4-4-4-4-4-4-4-4-4----------------------------------------------------------------|
D|---------------------------------6-6-6-7-7-7-4-4-4----------------------------------------------|
A|------------------------------------------------------------------------------------------------|
D|------------------------------------------------------------------------------------------------| 

e|------------------------------------------------------------------------------------------------|
B|7-7-7-7-5-5-5-5-5-5-5-5-5-5-5-5-5-7-7-7-7-------------------------------------------------------|
G|-----------------------------------------4-4-4-4-4-4-4-4-4-4-4-4-4------------------------------|
D|------------------------------------------------------------------------------------------------|
A|------------------------------------------------------------------------------------------------|
D|------------------------------------------------------------------------------------------------|

Guitar 2 (Strum at the beat of the song)
e|-----------------------------------------------------------------------|
B|-----------------------------------------------------------------------|
G|-----------------------------------------------------------------------|
D|---4-4-4-4-4-4-4-4-7-7-7-7-7-7-7-7-2-2-2-2-2-2-2-2-9-9-9-9-9-9-9-9-----|
A|-:-4-4-4-4-4-4-4-4-7-7-7-7-7-7-7-7-2-2-2-2-2-2-2-2-9-9-9-9-9-9-9-9-:x2-|
D|---4-4-4-4-4-4-4-4-7-7-7-7-7-7-7-7-2-2-2-2-2-2-2-2-9-9-9-9-9-9-9-9-----|

Verse

Guitar 1
e|-----------------------------12~--------------------------------------------|
B|-:---10--14~---10--14~---10--------10--12~-: Repeat Twice-------------------|
G|---11--11----11--11----11--11----11--11-------------------------------------|
D|----------------------------------------------------------------------------|
A|----------------------------------------------------------------------------|
D|----------------------------------------------------------------------------|

Guitar 2 (Same as in the 1st verse, I don't think guitar 2 plays past the 4 barre in this part 
          but it still works)
e|------------------------|
B|------------------------|
G|------------------------|
D|---4~---7~---2~---9~----| Play once
A|---4~---7~---2~---9~----|
D|---4~---7~---2~---9~----|

Starting at "I'm just trying to be..." If you listen for it
e|----------------------------------------------------------------------------------------------|
B|-14--14--14--14--14--14--14--14--12--12--12--12--12--12--12--12--10--10--10--10--10--10--10---|
G|---11--11--11--11--11--11--11--11--11--11--11--11--11--11--11--11--11--11--11--11--11--11--11-|
D|----------------------------------------------------------------------------------------------|
A|----------------------------------------------------------------------------------------------|
D|----------------------------------------------------------------------------------------------|

e|----------------------------------|
B|-12--12--12--12--12--12--12--12---|
G|---11--11--11--11--11--11--11--11-|
D|----------------------------------|
A|----------------------------------|
E|----------------------------------|

Then Both
e|---------------------------------------------------------------------------|
B|---------------------------------------------------------------------------|
G|---------------------------------------------------------------------------|
D|-4-4-4-4-4-4-4-4-4-4-4-4-4-4-4-4-4-4-4-4-4-4-4-4-4-4-4---------------------|
A|-4-4-4-4-4-4-4-4-4-4-4-4-4-4-4-4-4-4-4-4-4-4-4-4-4-4-4--Pause--------------|
D|-4-4-4-4-4-4-4-4-4-4-4-4-4-4-4-4-4-4-4-4-4-4-4-4-4-4-4---------------------|
 PM-----------------------------------|


Chorus

Guitar 1
e|----------------------------------------------------------------------------------------|
B|-------------------7-7-7-7-5-5-5-5-5-5-5-5-5-5-5-5-5-7-7-7-7-5-5-5-5-5-5-5-5-5-5-5-5-5--|
G|----------------------------------------------------------------------------------------|
D|-4-4-4-4-4-4-4-4-4----------------------------------------------------------------------|
A|-4-4-4-4-4-4-4-4-4----------------------------------------------------------------------|
D|-4-4-4-4-4-4-4-4-4----------------------------------------------------------------------|

e|----------------------------------------------------------------------------------------|
B|7-7-7-7-------------------------------------------7-7-7-7-5-5-5-5-5-5-5-5-5-5-5-5-5-----|
G|-------4-4-4-4-4-4-4-4-4-4-4-4-4--------------------------------------------------------|
D|---------------------------------6-6-6-7-7-7-4-4-4--------------------------------------|
A|----------------------------------------------------------------------------------------|
D|----------------------------------------------------------------------------------------| 

e|----------------------------------------------------------------------------------------|
B|7-7-7-7-5-5-5-5-5-5-5-5-5-5-5-5-5-7-7-7-7-----------------------------------------------|
G|-----------------------------------------4-4-4-4-4-4-4-4-4-4-4-4-4----------------------|
D|----------------------------------------------------------------------------------------|
A|----------------------------------------------------------------------------------------|
D|----------------------------------------------------------------------------------------|


Guitar 2 (Strum at the beat of the song)
e|-----------------------------------------------------------------------|
B|-----------------------------------------------------------------------|
G|-----------------------------------------------------------------------|
D|---4-4-4-4-4-4-4-4-7-7-7-7-7-7-7-7-2-2-2-2-2-2-2-2-9-9-9-9-9-9-9-9-----|
A|-:-4-4-4-4-4-4-4-4-7-7-7-7-7-7-7-7-2-2-2-2-2-2-2-2-9-9-9-9-9-9-9-9-:x2-|
D|---4-4-4-4-4-4-4-4-7-7-7-7-7-7-7-7-2-2-2-2-2-2-2-2-9-9-9-9-9-9-9-9-----|


Then Both
e|---------------------------------------------------------------------------------------------------------|
B|---------------------------------------------------------------------------------------------------------|
G|-7-7-7-7-7-7-7-7-9-9-9-9-9-9-9-9---------------------7-7-7-7-7-7-7-7-9-9-9-9-9-9-9-9---------------------|
D|-x-x-x-x-x-x-x-x-x-x-x-x-x-x-x-x-4-4-4-4-4-4-4-4-4-4-x-x-x-x-x-x-x-x-x-x-x-x-x-x-x-x-4-4-4-4-4-4-4-4-4-4-|
A|-5-5-5-5-5-5-5-5-7-7-7-7-7-7-7-7-4-4-4-4-4-4-4-4-4-4-5-5-5-5-5-5-5-5-7-7-7-7-7-7-7-7-4-4-4-4-4-4-4-4-4-4-|
D|---------------------------------4-4-4-4-4-4-4-4-4-4---------------------------------4-4-4-4-4-4-4-4-4-4-|


Solo

Guitar 1
e|-9-2-0-2-9-2-0-2-7-2-0-2-7-2-0-2-12-14--9-2-9-2-0-2-7-2-0-2-|
B|--------------------------------------12--------------------|
G|------------------------------------------------------------|
D|------------------------------------------------------------|
A|------------------------------------------------------------|
D|------------------------------------------------------------|

e|-2-2-2-2-2-2-2-2-2-2-2-2-2--------|
B|----------------------------------|
G|----------------------------Pause-|
D|----------------------------------|
A|----------------------------------|
D|----------------------------------|


Guitar 2
Strum with the beat of the song
e|--------------------------------------------------------------------------|
B|--------------------------------------------------------------------------|
G|-7-7-7-7-9-9-9-9-----------------7-7-7-7-9-9-9-9--------------------------|
D|-x-x-x-x-x-x-x-x-4-4-4-4-4-4-4-4-x-x-x-x-x-x-x-x-4-4-4-4-4-4-4-4-4--Pause-|
A|-5-5-5-5-5-5-5-5-4-4-4-4-4-4-4-4-5-5-5-5-7-7-7-7-4-4-4-4-4-4-4-4-4--------|
D|-----------------4-4-4-4-4-4-4-4-----------------4-4-4-4-4-4-4-4-4--------|
                      Speed up to what you hear in the song-----------------|
                      On the last 5 notes of the 4 barre as shown by the dashes

Then Both
e|-------------------------------------------------------|
B|-------------------------------------------------------|
G|-------------------------------------------------------|
D|-4-4-4-4-4-4-4-4-4-4-4-4-4-4-4-4-4-4-4-4-4-4-4-4-4-4-4-|
A|-4-4-4-4-4-4-4-4-4-4-4-4-4-4-4-4-4-4-4-4-4-4-4-4-4-4-4-|
D|-4-4-4-4-4-4-4-4-4-4-4-4-4-4-4-4-4-4-4-4-4-4-4-4-4-4-4-|
 PM-----------------------------------|


Chorus

e|----------------------------------------------------------------------------------------|
B|-------------------7-7-7-7-5-5-5-5-5-5-5-5-5-5-5-5-5-7-7-7-7-5-5-5-5-5-5-5-5-5-5-5-5-5--|
G|----------------------------------------------------------------------------------------|
D|-4-4-4-4-4-4-4-4-4----------------------------------------------------------------------|
A|-4-4-4-4-4-4-4-4-4----------------------------------------------------------------------|
D|-4-4-4-4-4-4-4-4-4----------------------------------------------------------------------|

e|----------------------------------------------------------------------------------------|
B|7-7-7-7-------------------------------------------7-7-7-7-5-5-5-5-5-5-5-5-5-5-5-5-5-----|
G|-------4-4-4-4-4-4-4-4-4-4-4-4-4--------------------------------------------------------|
D|---------------------------------6-6-6-7-7-7-4-4-4--------------------------------------|
A|----------------------------------------------------------------------------------------|
D|----------------------------------------------------------------------------------------| 

e|----------------------------------------------------------------------------------------|
B|7-7-7-7-5-5-5-5-5-5-5-5-5-5-5-5-5-7-7-7-7-----------------------------------------------|
G|-----------------------------------------4-4-4-4-4-4-4-4-4-4-4-4-4----------------------|
D|----------------------------------------------------------------------------------------|
A|----------------------------------------------------------------------------------------|
D|----------------------------------------------------------------------------------------|


Guitar 2 (Strum at the beat of the song)
e|-----------------------------------------------------------------------|
B|-----------------------------------------------------------------------|
G|-----------------------------------------------------------------------|
D|---4-4-4-4-4-4-4-4-7-7-7-7-7-7-7-7-2-2-2-2-2-2-2-2-9-9-9-9-9-9-9-9-----|
A|-:-4-4-4-4-4-4-4-4-7-7-7-7-7-7-7-7-2-2-2-2-2-2-2-2-9-9-9-9-9-9-9-9-:x2-|
D|---4-4-4-4-4-4-4-4-7-7-7-7-7-7-7-7-2-2-2-2-2-2-2-2-9-9-9-9-9-9-9-9-----|

Exit Solo

e|---------------------------------------------------------------------------------|
B|-14-12--12-14-12--12-14-12--12-14-12--12-12-10--10-12-10--10-12-10--10-12-10--10-|
G|------11--------11--------11--------11--------11--------11--------11--------11---|
D|---------------------------------------------------------------------------------|
A|---------------------------------------------------------------------------------|
D|---------------------------------------------------------------------------------|

e|---------------------------------------------------------------------------------|
B|-10--10--10--10--10--10--10--10--9-7-7-9-7-7-9-7-7-9-7-7-7~~~~~------------------|
G|---11--11--11--11--11--11--11--11---9-----9-----9-----9--------------------------|
D|---------------------------------------------------------------------------------|
A|---------------------------------------------------------------------------------|
D|---------------------------------------------------------------------------------|

Guitar 2 (Strum at the beat of the song)
e|--------------------------------------------------------------------|
B|--------------------------------------------------------------------|
G|--------------------------------------------------------------------|
D|-4-4-4-4-4-4-4-4-7-7-7-7-7-7-7-7-2-2-2-2-2-2-2-2-9-9-9-9-9-9-9-9-4~-|
A|-4-4-4-4-4-4-4-4-7-7-7-7-7-7-7-7-2-2-2-2-2-2-2-2-9-9-9-9-9-9-9-9-4~-|
D|-4-4-4-4-4-4-4-4-7-7-7-7-7-7-7-7-2-2-2-2-2-2-2-2-9-9-9-9-9-9-9-9-4~-|


This is that little bit at the end of the song that plays after the exit solo
e|---------------------------------------------------------------------------------|
B|---------10--------10------------10----------------------------------------------|
G|-11-11-11--11-11-11--11-11~-11-11--11~-------------------------------------------|
D|---------------------------------------------------------------------------------|
A|---------------------------------------------------------------------------------|
D|---------------------------------------------------------------------------------|


************************************

| /   slide up
| \   slide down
| h   hammer-on
| p   pull-off
| ~   vibrato
| +   harmonic
| x   Mute note
| b   Bend
| pb  Pre-bend
| br  Bend release
| pbr Pre-bend release
| brb Bend release bend

************************************
 
 
You Me At Six - Room To Breathe Tab :: indexed at Ultimate Guitar.
Room To Breathe tabs @ 911Tabs

Quick tip, so you can enjoy Room To Breathe Tab even more:

Try out the AutoScroller option ... It scrolls the page for you, so you can totally focus on nailing that solo. You can choose among different speeds using your mouse or your keyboard (keys 0, 1, 2 and 3).

Show us your talent, perform Room To Breathe Tab!

Here you can post a video or audio performance. Tell me more ...
Where can we find your performance? Tell me more ...
Your comment:
Please, log in to post your performance.