Artists by letter: A B C D E F G H I J K L M N O P Q R S T U V W X Y Z 0-9

 
Room To Breathe Acoustic Tab
Videos I referred to (watch them to get the timing/rhythm):

https://www.youtube.com/watch?v=CadVhhIYbDU
https://www.youtube.com/watch?v=NYziVo578s8
https://www.youtube.com/watch?v=mGdYERjNiVc


KEY:

(x) - Notes in brackets are optional, you can just slide to the next note without playing them.
 PM  - Palm-Muted


[Intro]

e|---------------------------------------------------------------------------|
B|---------------------------------------------------------------------------|
G|--3-----3-----3-----3-----3-------3-----3-----3----------------------------|
D|---------------------------------------------------------------------------|
A|----0-----0-----0-----0-----0-------0-----0-----0--------------------------|
E|3-----3-----3-----3-----3-----3-3-----3-----3-----3------------------------| 


[Verse 1]

e|---------------------------------------------------------------------------|
B|---------------------------------------------------------------------------|
G|--3-----3-----3-----3-----3--------7-----7-----7-----7-----7-----7---------|
D|---------------------------------------------------------------------------|
A|----0-----0-----0-----0-----0--------0-----0-----0-----0-----0-----0-------|
E|3-----3-----3-----3-----3-----(3)-6----6-----6-----6-----6-----6----(6)----| 

e|---------------------------------------------------------------------------|
B|---------------------------------------------------------------------------|
G|--2-----2-----2-----2-----2--------9-----9-----9-----9-----9-----9---------|
D|---------------------------------------------------------------------------|
A|----0-----0-----0-----0-----0--------0-----0-----0-----0-----0-----0-------|
E|1-----1-----1-----1-----1-----(1)-8----8-----8-----8-----8-----8----(8)----|

This 4 bar sequence is repeated throughout the whole song except the second verse
and in the breakdown after the second chorus. 


[Chorus 1]

This bassline is played during all choruses and the second verse.  

e|---------------------------------------------------------------------------|
B|---------------------------------------------------------------------------|
G|---------------------------------------------------------------------------|
D|----------------8---8-----------3---3----------10---10---------------------|
A|5---5----------------------------------------------------------------------|
E|3---3------5----6---6------8----1---1------0----8---8------5---------------|

After chorus 1 the lead melody in the bridge to verse 2 is: 

e|---------10--|          e|---------13----------10----------|
B|---11--------|          B|---10----------------13----------|
G|12----12-----|   x2     G|12----12-------------12----------|
D|-------------|          D|---------------------------------|
A|-------------|          A|---------------------------------|
E|-------------|          E|---------------------------------|


[Breakdown after second chorus]

e|---------10-----------------------10---------------|
B|---11-----------11----11----11----------11----11---|
G|12----12-----12----12----12----12----12----12------|
D|---------------------------------------------------|
A|---------------------------------------------------|
E|---------------------------------------------------|

e|---------13----------------------13----------------|
B|---10----------10----10----10----------10----10----|
G|12----12----12----12----12----12----12----12-------|
D|---------------------------------------------------|
A|---------------------------------------------------|
E|---------------------------------------------------|

Then continuously strum secondary G chord palm-muted until the final chorus comes in:

  F(PM)                                     
  
 e|10|
 B|12|
 G|12|  
 D|12|
 A|10|
 E|--|


[Chorus 3]

[At the end of the final chorus this riff comes in]

(I think the guitarist might just be playing power chords (5th and 6th string only)here but can't tell.)

  C                                      D

e|8--8--8--8--8--8--8--8--8--8--8--8--8--10-10-10--|
B|8--8--8--8--8--8--8--8--8--8--8--8--8--12-12-12--|
G|9--9--9--9--9--9--9--9--9--9--9--9--9--12-12-12--|
D|10-10-10-10-10-10-10-10-10-10-10-10-10-12-12-12--|
A|10-10-10-10-10-10-10-10-10-10-10-10-10-10-10-10--|
E|8--8--8--8--8--8--8--8--8--8--8--8--8------------|

  F                                      G
  
e|8--8--8--8--8--8--8--8--8--8--8--8--8--10-10-10--|
B|10-10-10-10-10-10-10-10-10-10-10-10-10-12-12-12--|
G|10-10-10-10-10-10-10-10-10-10-10-10-10-12-12-12--|  
D|10-10-10-10-10-10-10-10-10-10-10-10-10-12-12-12--|  x2
A|8--8--8--8--8--8--8--8--8--8--8--8--8--10-10-10--|
E|-------------------------------------------------|

  C                                      

e|8--8--8--8--8--8--8--8--8--8--8--8--8--8--8--8---|
B|8--8--8--8--8--8--8--8--8--8--8--8--8--8--8--8---|
G|9--9--9--9--9--9--9--9--9--9--9--9--9--9--9--9---|
D|10-10-10-10-10-10-10-10-10-10-10-10-10-10-10-10--|
A|10-10-10-10-10-10-10-10-10-10-10-10-10-10-10-10--|
E|8--8--8--8--8--8--8--8--8--8--8--8--8--8--8--8---|

  D        Eb       C                    G

e|10-10-10-11-11-11-8--8--8--8--8--8--8--10-10-10--|
B|10-10-10-11-11-11-8--8--8--8--8--8--8--12-12-12--|
G|11-11-11-12-12-12-9--9--9--9--9--9--9--12-12-12--|
D|12-12-12-13-13-13-10-10-10-10-10-10-10-12-12-12--|
A|12-12-12-13-13-13-10-10-10-10-10-10-10-10-10-10--|
E|10-10-10-11-11-11-8--8--8--8--8--8--8------------|

  F                                      G
  
e|8--8--8--8--8--8--8--8--8--8--8--8--8--10-10-10--|
B|10-10-10-10-10-10-10-10-10-10-10-10-10-12-12-12--|
G|10-10-10-10-10-10-10-10-10-10-10-10-10-12-12-12--|  
D|10-10-10-10-10-10-10-10-10-10-10-10-10-12-12-12--|  x2
A|8--8--8--8--8--8--8--8--8--8--8--8--8--10-10-10--|
E|-------------------------------------------------|



************************************
| (n) Ghost note
************************************
 
 
You Me At Six - Room To Breathe Acoustic Tab :: indexed at Ultimate Guitar.
Room To Breathe Acoustic tabs @ 911Tabs

Quick tip, so you can enjoy Room To Breathe Acoustic Tab even more:

After the registration (which takes just 10 seconds, remember?) you will be able to use your profile - your very own piece of YourChords.com.

Show us your talent, perform Room To Breathe Acoustic Tab!

Here you can post a video or audio performance. Tell me more ...
Where can we find your performance? Tell me more ...
Your comment:
Please, log in to post your performance.