Artists by letter: A B C D E F G H I J K L M N O P Q R S T U V W X Y Z 0-9

 
Liquid Confidence Tab
-------------------------------------------------------------------------------
                        Liquid Confidence - You Me At Six
-------------------------------------------------------------------------------

Tuning: Standard

Verse 1
Rhythm Guitar
E|--------------------------------    ---------------------------|
B|--------------------------------    ---------------------------|
G|----9~-----9~----9~-----9~------ x4 ---9~----------------------|
D|----6~------------------9~------    ---9~----------------------|
A|----7~-----6~----9~-----0~------    ---0~----------------------|
E|-----------7~----9~-------------    ---------------------------|
Lead Guitar
e|-----------------------------------------|    -----------------|
B|--9-9-9-9h10-7-7-7-9h10-7-7-7-7----------|    -----------------|
G|--9-9-9-9----9-9-9-9----9-9-9-9-9-9-9-9--| x3 ---9-------------|
D|--------------------------------9-9-9-9--|    ---9-------------|
A|-----------------------------------------|    -----------------|
E|-----------------------------------------|    -----------------|
Join in on the second time.

Chorus 1
Rhythm Guitar
e|---------------------------------------------------------------|
B|---------------------------------------------------------------|
G|------------------4444444444444444-22222222-44444--------------|x2
D|-2222222222222222-4444444444444444-22222222-44444--------------|
A|-2222222222222222-2222222222222222-00000000-22222--------------|
E|-0000000000000000----------------------------------------------|
Lead Guitar
e|------------------------------------------------------------------------------------|
B|----12----12----12----12-----12-----12-----12-----12----12----12--12-12-12-12-12----|
G|-8/9---8/9---8/9---8/9---9/10---9/10---9/10---9/10---8/9---8/9----------------------|
D|------------------------------------------------------------------------------------|
A|------------------------------------------------------------------------------------|
E|------------------------------------------------------------------------------------|

Verse 2
Rhythm Guitar
E|--------------------------------    ---------------------------|
B|--------------------------------    ---------------------------|
G|----9~-----9~----9~-----9~------ x5 ---9~----------------------|
D|----6~------------------9~------    ---9~----------------------|
A|----7~-----6~----9~-----0~------    ---0~----------------------|
E|-----------7~----9~-------------    ---------------------------|
Lead Guitar
e|----------------------------------------------|
B|--9-9-9-9h10-7-7-7-9h10-7-7-7-7---------------|
G|--9-9-9-9----9-9-9-9----9-9-9-9-9-9-9-9-------| x3
D|--------------------------------9-9-9-9-------|
A|----------------------------------------------|
E|----------------------------------------------|
e|----------------------------------------------|
B|--9-9-9h10h9-7-7-7-9h10h9 7-7-7-7-------------|
G|--9-9--------9-9-9--------9-9-9-9-9-9-9-9-----| x2
D|----------------------------------9-9-9-9-----|
A|----------------------------------------------|
E|----------------------------------------------|

Chorus 2
Rhythm Guitar
e|---------------------------------------------------------------|
B|---------------------------------------------------------------|
G|------------------4444444444444444-22222222-44444--------------|x2
D|-2222222222222222-4444444444444444-22222222-44444--------------|
A|-2222222222222222-2222222222222222-00000000-22222--------------|
E|-0000000000000000----------------------------------------------|
Lead Guitar
e|----------------------------------------------------------------------|
B|--10-10-9--9--10-10-9--9--9--9--12-12-9--9--10-10-9--9--12-12-12--12--|
G|----9--9--9--9--9--9--9--9--9--9--9--9--9--9--9--9--9--9--9--9---9----|
D|----------------------------------------------------------------------|
A|----------------------------------------------------------------------|
E|----------------------------------------------------------------------|

Bridge
Rhythm Guitar
e|-----------------------|
B|-----------------------|
G|--66--44--22-----------|
D|--66--44--22--44--77---| x3
A|--44--22--00--44--77---|
E|--------------22--55---|
Join in on Second time of Lead Guitar First Section
Lead Guitar
e|-------------------------------------------   -----------   ------------|
B|------4~--------5~-------7~--------5~------   -5~-555555-   -55555555---|
G|---6-----6-6-6----6-6-6-----6-6-6----6-6---   -6~-666666-x2 -66666666---|
D|--6-6-----6-6-6----6-6-6-----6-6-6----6----x4 -6~-666666-    -66666666--|
A|-------------------------------------------   -----------    -----------|
E|-------------------------------------------   -----------    -----------|

Chorus 3
Rhythm Guitar
e|---------------------------------------------------------------|
B|---------------------------------------------------------------|
G|------------------4444444444444444-22222222-44444--------------|x2
D|-2222222222222222-4444444444444444-22222222-44444--------------|
A|-2222222222222222-2222222222222222-00000000-22222--------------|
E|-0000000000000000----------------------------------------------|
Lead Guitar
e|-7p0-0---------------------------------------------------------|
B|-------7-9--10p0-9p0-12p0-10p0-9/10----------------------------|
G|---------------------------------------------------------------|x3
D|---------------------------------------------------------------|
A|---------------------------------------------------------------|
E|---------------------------------------------------------------|

Outro
Rhythm Guitar
e|-----------------------------------------|    ----------------|
B|-----------------------------------------|    ----------------|
G|--99999999-44444444-66666666-22222222----|    ----------------|
D|--99999999-44444444-66666666-22222222----|x2  --2-------------|
A|--77777777-22222222-44444444-00000000----|    --2-------------|
E|-----------------------------------------|    --0-------------|
Lead Guitar
e|-----------------------------------------|    ----------------|
B|--9-9-9-9h10-7-7-7-9h10-7-7-7-7----------|    ----------------|
G|--9-9-9-9----9-9-9-9----9-9-9-9-9-9-9-9--| x3 --9-------------|
D|--------------------------------9-9-9-9--|    --9-------------|
A|-----------------------------------------|    ----------------|
E|-----------------------------------------|    ----------------|
 
 
You Me At Six - Liquid Confidence Tab :: indexed at Ultimate Guitar.
Liquid Confidence tabs @ 911Tabs

Quick tip, so you can enjoy Liquid Confidence Tab even more:

If you don't really know how to deal with "Absus4" chord and his equally confusing brothers, just put the mouse cursor over them and you will be shown a helpful chord diagram.

Show us your talent, perform Liquid Confidence Tab!

Here you can post a video or audio performance. Tell me more ...
Where can we find your performance? Tell me more ...
Your comment:
Please, log in to post your performance.