Artists by letter: A B C D E F G H I J K L M N O P Q R S T U V W X Y Z 0-9

 
Hard To Swallow Tab
i figured this out by watching Max play it on YouTube and it sounds good! listen 
to the song for timings as there's a lot of  strumming!

Intro and Verse

e--x--x--x--x--x--x--x--x---|
B--3--1--3--1--6--5--6--5---|
G--0--0--0--0--0--0--0--0---|  
D--x--x--x--x--x--x--x--x---|
A--1--1--3--3--5--5--5--5---|
E--x--x--x--x--x--x--x--x---|

Pre-Chorus

e-----|
B-----|
G-----|
D--2--|
A--3--|
E-----|

Chorus

e----x----x----x----x----|
B----x----x----x----x----|
G----5----5----5----5----|
D----3----2----3----2----|
A----3----3----5----3----|
E----3----x----x----x----|

2nd Verse Solo

e--------------------------------------------|
B-6-8-5-5b-----------------------------------|
G----------5-7-7-7-(pause)--5---------7------|
D--------------------------7--5-5h-----------|
A----------------------------------5-5-------|
E--------------------------------------------|

Repeat Verse Chords

Bridge Part

e---------------------------------------------------|
B---------------------------------------------------|
G-6(x12)-8(x4)-5(x12)-6(x4)-3(x12)-6(x4)-5b(x16)----|  
D---------------------------------------------------|
A---------------------------------------------------|
E---------------------------------------------------|

continually strum the notes (listen for timings)^
 
 
You Me At Six - Hard To Swallow Tab :: indexed at Ultimate Guitar.
Hard To Swallow tabs @ 911Tabs

Quick tip, so you can enjoy Hard To Swallow Tab even more:

YourChords.com Guitar Chords and Tabs Archive is currently indexing over 240'000 songs from 21'000+ different artists. And new chords just keep on coming in, so you will surely never run out of them.

Show us your talent, perform Hard To Swallow Tab!

Here you can post a video or audio performance. Tell me more ...
Where can we find your performance? Tell me more ...
Your comment:
Please, log in to post your performance.