Artists by letter: A B C D E F G H I J K L M N O P Q R S T U V W X Y Z 0-9

 
Crash Tab
[Intro]
e|-----5--| 
B|---3----| 
G|--------| 
D|-0------| 16x
A|--------| 
E|--------|

[Verse]
e|-----5--| 
B|---3----| 
G|--------| 26x
D|-0------| 
A|--------| 
E|--------|

[In between]
e|-----5--| 
B|---3----| 
G|--------| 6x
D|-0------| 
A|--------| 
E|--------|

[Pre-chorus 1]
e|-----5--| 
B|---3----| 
G|--------| 26x
D|-0------| 
A|--------| 
E|--------|

[In between]
e|-----5--| 
B|---3----| 
G|--------| 6x
D|-0------| 
A|--------| 
E|--------|

But when I looked at her
e|-------------------------------------------3-------3----|
B|-------------------------------------------3-------3----|
G|-------------------------------------------4-------4----|
D|--------------------------------------------------------|
A|-2-2-2-2-2-2-2-2-2--5-5-5-5-5-5-5-5---------------------|
E|-------------------------------------3-3-3---3-3-3------|

[Verse 2]
e|-----5--| 
B|---3----| 
G|--------| 26x
D|-0------| 
A|--------| 
E|--------| 
 
[Pre-chorus 2]
e|-----5--| 
B|---3----| 
G|--------| 26x
D|-0------| 
A|--------| 
E|--------|





[In between]
e|-----5--| 
B|---3----| 
G|--------| 6x
D|-0------| 
A|--------| 
E|--------|

But when I looked at her
e|-------------------------------------------3-------3----|
B|-------------------------------------------3-------3----|
G|-4-4-4-4-4-4-4-4-4--7-7-7-7-7-7-7-7--------4-------4----|
D|-4-4-4-4-4-4-4-4-4--7-7-7-7-7-7-7-7--5-5-5-5-5-5-5-5----|
A|-2-2-2-2-2-2-2-2-2--5-5-5-5-5-5-5-5--5-5-5-5-5-5-5-5----|
E|-------------------------------------3-3-3-3-3-3-3-3----|

G akkoord
         D         A
Just crash, fall down, 
                   Bm         G
I'll wrap my arms around you now.
      D                    A
Just crash, it's our time now,
                    Bm          G
to make this work second time around.

[Verse 3]
e|-----5--| 
B|---3----| 
G|--------| 28x
D|-0------| 
A|--------| 
E|--------|

e|-----5--| 
B|---3----| 
G|--------| 4x
D|-0------| 
A|--------| 
E|--------|

e|-----5--| 
B|---3----| 
G|--------| 33x
D|-0------| 
A|--------| 
E|--------|

D            A 
Crash, fall down.
                   Bm         G
I'll wrap my arms around you now.
         D                 A   
Just crash, it's our time now, 
                   Bm           G
to make it work, second time around.

D          A
Ohhh crash, fall down.
       Bm         G
Just crash, fall down.
       D          A
Just crash, fall down.
      Bm           G
Just crash, fall down. 

 
 
You Me At Six - Crash Tab :: indexed at Ultimate Guitar.
Crash tabs @ 911Tabs

Quick tip, so you can enjoy Crash Tab even more:

You might want to transpose the song if it is too high or too low for you to sing. Just click the desired option while playing a song and all the chords will automatically be transponded into a new key.

Show us your talent, perform Crash Tab!

Here you can post a video or audio performance. Tell me more ...
Where can we find your performance? Tell me more ...
Your comment:
Please, log in to post your performance.