Artists by letter: A B C D E F G H I J K L M N O P Q R S T U V W X Y Z 0-9

 
Way Away Acoustic Tab
Tabbed By: Fabio BlenderBR
 - Give your rating and help others users to find the best versions of the songs -

Note: This tab is for the Acoustic version of Way Away presented in the Ocean Avenue album,
released in 2003 as a Bonus Track.
 
Tuning Drop D - DADGBe

 - Intro:
Guitar 1
e|---------------------------------------------------------------------------| 
B|---------------------------------------------------------------------------|
G|---0---2---0---2---0---2---0----0---2---0---3---2---0----------------------|
D|-0---0---0---0---0---0---0------------------------------3------------------|    2x
A|------------------------------1---1---1---1---1---1---1--------------------|
D|---------------------------------------------------------------------------|


 - Intro Pt.2

Guitar 1
e|---------------------------------------------------------------|
B|-6-6-6-6-6-6-6-6-----------------------------------------------|
G|-7-7-7-7-7-7-7-7-3-3-3-3-3-3-3-3-------------------------------|
D|-7-7-7-7-7-7-7-7-3-3-3-3-3-3-3-3-------------------------------|
A|-5-5-5-5-5-5-5-5-1-1-1-1-1-1-1-1-------------------------------|    2x
D|---------------------------------------------------------------|

Guitar 2
e|-------------------------------------------------------------------------| 
B|-------------------------------------------------------------------------|
G|-12-12-14-12-14-12-14-12-12-12-12-12-14-12-15-14-12-10-10-10-------------|
D|-x--x--x--x--x--x--x--x--x--x--x--x--x--x--x--x--x--x--x--x--------------|
A|-10-10-12-10-12-10-12-10-10-10-10-10-12-10-13-12-10-8--8--8--------------|   2x
D|-------------------------------------------------------------------------|


 - Verse:
(I think i'm breaking out...)

Guitar 1
e|-------0-------0-------0-------0-------0-------0-------0------0---------0-------0-------0-------0------|
B|-------------------------------------------------------------------------------------------------------|
G|---7-------7-------7-------7-------5-------5-------5-------5--------3-------3-------3-------3----------|
D|-------------------------------------------------------------------------------------------------------|
A|-5---5---5---5---5---5---5---5---3---3---3---3---3---3---3---3----1---1---1---1---1---1---1---1--------|
D|-------------------------------------------------------------------------------------------------------|


(All the same)

Guitar 1
e|---------------------------------------------------------------|
B|---------------------------------------------------------------|
G|---------5-5-5-5-----------------------------------------------|
D|-3-3-3-3-5-5-5-5-----------------------------------------------|
A|-3-3-3-3-3-3-3-3-----------------------------------------------|
D|-3-3-3-3-------------------------------------------------------|


(And even though i know...)

Guitar 1
e|-------0-------0-------0-------0-------0-------0-------0------0---------0-------0-------0-------0------|
B|-------------------------------------------------------------------------------------------------------|
G|---7-------7-------7-------7-------5-------5-------5-------5--------3-------3-------3-------3----------|
D|-------------------------------------------------------------------------------------------------------|
A|-5---5---5---5---5---5---5---5---3---3---3---3---3---3---3---3----1---1---1---1---1---1---1---1--------|
D|-------------------------------------------------------------------------------------------------------|


(I'm not afraid)

Guitar 1
e|---------------------------------------------------------------|
B|---------------------------------------------------------------|
G|---------5-5-5-5-----------------------------------------------|
D|-3-3-3-3-5-5-5-5-----------------------------------------------|
A|-3-3-3-3-3-3-3-3-----------------------------------------------|
D|-3-3-3-3-------------------------------------------------------|


 - Chorus
(Way away from where i'll be...)

Guitar 1
e|--------------------------------------------------------------------|
B|-6-6-6-6-6-6-6-6----------------------------------------------------|
G|-7-7-7-7-7-7-7-7----------------------------------------------------|
D|-7-7-7-7-7-7-7-7-3-3-3-3-3-3-3-3-8-8-8-8-8-8-8-8-7-7-7-7-7-7-7-7----|
A|-5-5-5-5-5-5-5-5-3-3-3-3-3-3-3-3-8-8-8-8-8-8-8-8-8-8-8-8-8-8-8-8----|
D|-----------------3-3-3-3-3-3-3-3-8-8-8-8-8-8-8-8-8-8-8-8-8-8-8-8----|

(How it feels to be alone...)

Guitar 1
e|--------------------------------------------------------------------|
B|-----------------6-6-6-6-6-6-6-6------------------------------------|
G|-----------------7-7-7-7-7-7-7-7------------------------------------|
D|-5-5-5-5-5-5-5-5-7-7-7-7-7-7-7-7-5-5-5-5-5-5-5-5-8-8-8-8-8-8-8-8----|
A|-5-5-5-5-5-5-5-5-5-5-5-5-5-5-5-5-5-5-5-5-5-5-5-5-8-8-8-8-8-8-8-8----|
D|-5-5-5-5-5-5-5-5-----------------5-5-5-5-5-5-5-5-8-8-8-8-8-8-8-8----|

Guitar 2
e|---------------------------------------------------------------|
B|---------------------------------------------------------------|
G|------------------7-7-9-9-10-10-7-7----------------------------|
D|------------------x-x-x-x-x--x--x-x----------------------------|
A|------------------5-5-7-7-8--8--7-7----------------------------|
D|---------------------------------------------------------------|


 - Intro

Guitar 1
e|---------------------------------------------------------------|
B|-6-6-6-6-6-6-6-6-----------------------------------------------|
G|-7-7-7-7-7-7-7-7-3-3-3-3-3-3-3-3-------------------------------|
D|-7-7-7-7-7-7-7-7-3-3-3-3-3-3-3-3-------------------------------|
A|-5-5-5-5-5-5-5-5-1-1-1-1-1-1-1-1-------------------------------|    2x
E|---------------------------------------------------------------|

Guitar 2
e|-------------------------------------------------------------------------| 
B|-------------------------------------------------------------------------|
G|-12-12-14-12-14-12-14-12-12-12-12-12-14-12-15-14-12-10-10-10-------------|
D|-x--x--x--x--x--x--x--x--x--x--x--x--x--x--x--x--x--x--x--x--------------|
A|-10-10-12-10-12-10-12-10-10-10-10-10-12-10-13-12-10-8--8--8--------------|   2x
E|-------------------------------------------------------------------------|


- Verse:
(You can't stop me now...)

Guitar 1
e|-------0-------0-------0-------0-------0-------0-------0------0---------0-------0-------0-------0------|
B|-------------------------------------------------------------------------------------------------------|
G|---7-------7-------7-------7-------5-------5-------5-------5--------3-------3-------3-------3----------|
D|-------------------------------------------------------------------------------------------------------|
A|-5---5---5---5---5---5---5---5---3---3---3---3---3---3---3---3----1---1---1---1---1---1---1---1--------|
D|-------------------------------------------------------------------------------------------------------|


(I'm on my way)

Guitar 1
e|---------------------------------------------------------------|
B|---------------------------------------------------------------|
G|---------5-5-5-5-----------------------------------------------|
D|-3-3-3-3-5-5-5-5-----------------------------------------------|
A|-3-3-3-3-3-3-3-3-----------------------------------------------|
D|-3-3-3-3-------------------------------------------------------|


(I made this far now...)

Guitar 1
e|-------0-------0-------0-------0-------0-------0-------0------0---------0-------0-------0-------0------|
B|-------------------------------------------------------------------------------------------------------|
G|---7-------7-------7-------7-------5-------5-------5-------5--------3-------3-------3-------3----------|
D|-------------------------------------------------------------------------------------------------------|
A|-5---5---5---5---5---5---5---5---3---3---3---3---3---3---3---3----1---1---1---1---1---1---1---1--------|
D|-------------------------------------------------------------------------------------------------------|


(I'm not afraid)

Guitar 1
e|---------------------------------------------------------------|
B|---------------------------------------------------------------|
G|---------5-5-5-5-5-5-5-5-3-3-3-3-3-3-3-3-3-3-3-3-3-3-3-3-------|
D|-3-3-3-3-5-5-5-5-5-5-5-5-3-3-3-3-3-3-3-3-3-3-3-3-3-3-3-3-------|
A|-3-3-3-3-3-3-3-3-3-3-3-3-1-1-1-1-1-1-1-1-1-1-1-1-1-1-1-1-------|
D|-3-3-3-3-------------------------------------------------------|

Guitar 2
e|-------------------------0-0-0-0-1-1-1-1-0-0-0-0-1-1-1-1-------|
B|-------------------------1-1-1-1-1-1-1-1-1-1-1-1-1-1-1-1-------|
G|---------5-5-5-5-5-5-5-5-3-3-3-3-3-3-3-3-3-3-3-3-3-3-3-3-------|
D|-3-3-3-3-5-5-5-5-5-5-5-5---------------------------------------|
A|-3-3-3-3-3-3-3-3-3-3-3-3---------------------------------------|
D|-3-3-3-3-------------------------------------------------------|


 - Chorus
(Way away from where i'll be...)

Guitar 1
e|--------------------------------------------------------------------|
B|-6-6-6-6-6-6-6-6----------------------------------------------------|
G|-7-7-7-7-7-7-7-7----------------------------------------------------|
D|-7-7-7-7-7-7-7-7-3-3-3-3-3-3-3-3-8-8-8-8-8-8-8-8-7-7-7-7-7-7-7-7----|
A|-5-5-5-5-5-5-5-5-3-3-3-3-3-3-3-3-8-8-8-8-8-8-8-8-8-8-8-8-8-8-8-8----|
D|-----------------3-3-3-3-3-3-3-3-8-8-8-8-8-8-8-8-8-8-8-8-8-8-8-8----|

(How it feels to be alone...)

Guitar 1
e|--------------------------------------------------------------------|
B|-----------------6-6-6-6-6-6-6-6------------------------------------|
G|-----------------7-7-7-7-7-7-7-7------------------------------------|
D|-5-5-5-5-5-5-5-5-7-7-7-7-7-7-7-7-5-5-5-5-5-5-5-5-8-8-8-8-8-8-8-8----|
A|-5-5-5-5-5-5-5-5-5-5-5-5-5-5-5-5-5-5-5-5-5-5-5-5-8-8-8-8-8-8-8-8----|
D|-5-5-5-5-5-5-5-5-----------------5-5-5-5-5-5-5-5-8-8-8-8-8-8-8-8----|

Guitar 2
e|---------------------------------------------------------------|
B|---------------------------------------------------------------|
G|------------------7-7-9-9-10-10-7-7----------------------------|
D|------------------x-x-x-x-x--x--x-x----------------------------|
A|------------------5-5-7-7-8--8--7-7----------------------------|
D|---------------------------------------------------------------|


 - Bridge:

Guitar 1
e|---------------------------------------------------------------|
B|-6----------------6--------------------------------------------|
G|-7--------3-------7------3-------------------------------------|
D|-7--------3-------7------3-------------------------------------|
A|-5--------1-------5------1-------------------------------------|
D|---------------------------------------------------------------|


(Letting out the noise inside of me...)

Guitar 1
e|---------------------------------------------------------------|
B|----------------------------------------1-----------1----------|
G|-------7--------7-------7-------7---------3-----------3--------|
D|---7--------7-------7-------7--------3--------3---3------------|
A|-5---5----5---5---5---5---5---5----1--------1---1--------------|     4x
D|---------------------------------------------------------------|


(Letting out the noise inside of me...)

Guitar 1
e|---------------------------------------------------------------|
B|-6-6-6-6-6-6-6-6-----------------------------------------------|
G|-7-7-7-7-7-7-7-7-3-3-3-3-3-3-3-3-------------------------------|
D|-7-7-7-7-7-7-7-7-3-3-3-3-3-3-3-3-------------------------------|
A|-5-5-5-5-5-5-5-5-1-1-1-1-1-1-1-1-------------------------------|
D|---------------------------------------------------------------|

Guitar 2
e|---------------------------------------------------------------------------|
B|---------------------------------------------------------------------------|
G|-7-7-7-7-9-9-9-9-10-10-10-10-12-12-12-12-12--------------------------------|
D|-x-x-x-x-x-x-x-x-x--x--x--x--x--x--x--x--x---------------------------------|
A|-5-5-5-5-7-7-7-7-8--8--8--8--10-10-10-10-10--------------------------------|     8x
D|---------------------------------------------------------------------------|

 - Chorus
(Way away from where i'll be...)

Guitar 1
e|--------------------------------------------------------------------|
B|-x-x-x-x-x-x-x-x----------------------------------------------------|
G|-x-x-x-x-x-x-x-x----------------------------------------------------|
D|-x-x-x-x-x-x-x-x-3-3-3-3-3-3-3-3-8-8-8-8-8-8-8-8-7-7-7-7-7-7-7-7----|
A|-x-x-x-x-x-x-x-x-3-3-3-3-3-3-3-3-8-8-8-8-8-8-8-8-8-8-8-8-8-8-8-8----|
D|-----------------3-3-3-3-3-3-3-3-8-8-8-8-8-8-8-8-8-8-8-8-8-8-8-8----|

(How it feels to be alone...)

Guitar 1
e|--------------------------------------------------------------------|
B|-----------------6-6-6-6-6-6-6-6------------------------------------|
G|-----------------7-7-7-7-7-7-7-7------------------------------------|
D|-5-5-5-5-5-5-5-5-7-7-7-7-7-7-7-7-5-5-5-5-5-5-5-5-8-8-8-8-8-8-8-8----|
A|-5-5-5-5-5-5-5-5-5-5-5-5-5-5-5-5-5-5-5-5-5-5-5-5-8-8-8-8-8-8-8-8----|
D|-5-5-5-5-5-5-5-5-----------------5-5-5-5-5-5-5-5-8-8-8-8-8-8-8-8----|

Guitar 2
e|---------------------------------------------------------------|
B|---------------------------------------------------------------|
G|------------------7-7-9-9-10-10-7-7----------------------------|
D|------------------x-x-x-x-x--x--x-x----------------------------|
A|------------------5-5-7-7-8--8--7-7----------------------------|
D|---------------------------------------------------------------|
 
 
Yellowcard - Way Away Acoustic Tab :: indexed at Ultimate Guitar.
Way Away Acoustic tabs @ 911Tabs

About the artist behind Way Away Acoustic Tab:

Yellowcard is an alternative rock multi-platinum selling band from Jacksonville, Florida. Their music features a rare contribution to the genre, incorporating the use of a violin.

The band is not currently active and is on a self-described "indefinite hiatus."

Indexed at Wikipedia.

Show us your talent, perform Way Away Acoustic Tab!

Here you can post a video or audio performance. Tell me more ...
Where can we find your performance? Tell me more ...
Your comment:
Please, log in to post your performance.