Artists by letter: A B C D E F G H I J K L M N O P Q R S T U V W X Y Z 0-9

 
Rivertown Blues Tab
Song: Rivertown Blues
Artist: Yellowcard
Album: Southern Air

Tabbed by: Raikmaster 
Corrections: [email protected]

Guitar 1: (Rythm) Ryan Key
Guitar 2: (Lead) Ryan Mendez
Guitar 3: (Solo)

xxxxxxxxxxxxxxxxxxxxxxxxxxxxxxxxxxxxxxxxxxxxxxxxxxxxxxxxxxxxxxxxxxxxxxxxxxxxxxxxxxxxxxxxxxxxxxxxxxxxxxxxxxxxxxxx

>>>>>>>>>>>>>>>>>>>>>>>>>>>>>>>>>>>>>>>>>>>>>>>>>>> Guitar 1 <<<<<<<<<<<<<<<<<<<<<<<<<<<<<<<<<<<<<<<<<<<<<<<<<<<

Intro

E|---------------------|---------------------|---------------------|---------------------|
B|---------------------|---------------------|---------------------|---------------------|
G|---------------------|---------------------|-2----2----2----2----|-5----5----5----5----|
D|-3----3----3----3----|-3----3----3----3----|-2----2----2----2----|-5----5----5----5----|
A|-3----3----3----3----|-3----3----3----3----|-0----0----0----0----|-3----3----3----3----|
D|-3----3----3----3----|-3----3----3----3----|---------------------|---------------------|


E|---------------------|---------------------|---------------------|---------------------|
B|---------------------|---------------------|---------------------|---------------------|
G|---------------------|---------------------|-2----2----2----2----|-5----5----5---------|
D|-3----3----3----3----|-3----3----3----3----|-2----2----2----2----|-5----5----5---------|
A|-3----3----3----3----|-3----3----3----3----|-0----0----0----0----|-3----3----3---------|
D|-3----3----3----3----|-3----3----3----3----|---------------------|---------------/10\--|

E|---------------------------------|---------------------------------|---------------------------------|
B|---------------------------------|---------------------------------|---------------------------------|
G|---------------------------------|---------------------------------|---------------------------------|
D|---------------------------------|---------------------------------|---------------------------------|
A|-0---0---0---0---0---0---0---0---|-0---0---0---0---0---0---0---0---|-7---7---7---7---7---7---7---7---|
D|-0---0---0---0---0---0---0---0---|-0---0---0---0---0---0---0---0---|-7---7---7---7---7---7---7---7---|


E|---------------------------------|---------------------------------|---------------------------------|
B|---------------------------------|---------------------------------|---------------------------------|
G|---------------------------------|---------------------------------|---------------------------------|
D|---------------------------------|---------------------------------|---------------------------------|
A|-7---7---7---7---7---7---7---7---|-3---3---3---3---3---3---3---3---|-3---3---3---3---3---3---3---3---|
D|-7---7---7---7---7---7---7---7---|-3---3---3---3---3---3---3---3---|-3---3---3---3---3---3---3---3---|


E|---------------------------------|---------------------------------|---------------------------------|
B|---------------------------------|---------------------------------|---------------------------------|
G|---------------------------------|---------------------------------|---------------------------------|
D|-5---5---5---5---5---5---5---5---|---------------------------------|---------------------------------|
A|-3---3---3---3---3---3---3---3---|-5---5---5---5---5---5---5---5---|-0---0---0---0---0---0---0---0---|
D|---------------------------------|-5---5---5---5---5---5---5---5---|-0---0---0---0---0---0---0---0---|


E|---------------------------------|---------------------------------|---------------------------------|
B|---------------------------------|---------------------------------|---------------------------------|
G|---------------------------------|---------------------------------|---------------------------------|
D|---------------------------------|---------------------------------|---------------------------------|
A|-0---0---0---0---0---0---0---0---|-7---7---7---7---7---7---7---7---|-7---7---7---7---7---7---7---7---|
D|-0---0---0---0---0---0---0---0---|-7---7---7---7---7---7---7---7---|-7---7---7---7---7---7---7---7---|


E|---------------------------------|---------------------------------|---------------------------------|
B|---------------------------------|---------------------------------|---------------------------------|
G|---------------------------------|---------------------------------|---------------------------------|
D|---------------------------------|---------------------------------|---------------------------------|
A|-3---3---3---3---3---3---3---3---|-3---3---3---3---3---3---3---3---|-3---3---3---3---3---3---3---3---|
D|-3---3---3---3---3---3---3---3---|-3---3---3---3---3---3---3---3---|-3---3---3---3---3---3---3---3---|


E|---------------------------------|
B|---------------------------------|
G|---------------------------------|
D|---------------------------------|
A|-3---3---3---3---3---3---3---3---|
D|-3---3---3---3---3---3---3---3---|



>>>>>>>>>>>>>>>>>>>>>>>>>>>>>>>>>>>>>>>>> (0:30) Verse (Guitar 2 Play This Part) <<<<<<<<<<<<<<<<<<<<<<<<<<<<<<<


>>>>>>>>>>>>>>>>>>>>>>>>>>>>>>>>>>>>>>>>>>>>>>>>>>>> (0:50) Pre-chorus <<<<<<<<<<<<<<<<<<<<<<<<<<<<<<<<<<<<<<<<<

E|-------------|---------------------------------------|-3---3---------------3---3---------------|
B|-------------|---------------------------------------|-1---1---------------1---1---------------|
G|-------------|---------------------------------------|-2---2---------------2---2---------------|
D|-------------|-2---2---2---2-------------------------|-----------------------------------------|
A|---\\\\12----|-3---3---3---3-------3--3--3--3--3--3--|---------3--3--3--3----------3--3--3--3--|
D|---\\\\12----|-2---2---2---2-------------------------|-----------------------------------------|
                                     *  *  *  *  *  *            *  *  *  *          *  *  *  *


E|---------------------------------------|-3---3---------------3---3--------|
B|---------------------------------------|-1---1---------------1---1--------|
G|---------------------------------------|-2---2---------------2---2--------|
D|-3---3---3---3-------------------------|----------------------------------|
A|-3---3---3---3-------3--3--3--3--3--3--|---------3--3--3--3---------------|
D|-3---3---3---3-------------------------|----------------------------------|
                       *  *  *  *  *  *            *  *  *  *


>>>>>>>>>>>>>>>>>>>>>>>>>>>>>>>>>>>>>>>>>>>>>>>>>>>>> (0:57) Chorus <<<<<<<<<<<<<<<<<<<<<<<<<<<<<<<<<<<<<<<<<<<<

E|---------------------------------|---------------------------------|---------------------------------|
B|---------------------------------|---------------------------------|---------------------------------|
G|---------------------------------|---------------------------------|---------------------------------|
D|---------------------------------|---------------------------------|---------------------------------|
A|-0---0---0---0---0---0---0---0---|-0---0---0---0---0---0---0---0---|-7---7---7---7---7---7---7---7---|
D|-0---0---0---0---0---0---0---0---|-0---0---0---0---0---0---0---0---|-7---7---7---7---7---7---7---7---|


E|---------------------------------|---------------------------------|---------------------------------|
B|---------------------------------|---------------------------------|---------------------------------|
G|---------------------------------|---------------------------------|---------------------------------|
D|---------------------------------|---------------------------------|---------------------------------|
A|-7---7---7---7---7---7---7---7---|-3---3---3---3---3---3---3---3---|-3---3---3---3---3---3---3---3---|
D|-7---7---7---7---7---7---7---7---|-3---3---3---3---3---3---3---3---|-3---3---3---3---3---3---3---3---|


E|---------------------------------|---------------------------------|---------------------------------|
B|---------------------------------|---------------------------------|---------------------------------|
G|---------------------------------|---------------------------------|---------------------------------|
D|-5---5---5---5---5---5---5---5---|---------------------------------|---------------------------------|
A|-3---3---3---3---3---3---3---3---|-5---5---5---5---5---5---5---5---|-0---0---0---0---0---0---0---0---|
D|---------------------------------|-5---5---5---5---5---5---5---5---|-0---0---0---0---0---0---0---0---|


E|---------------------------------|---------------------------------|---------------------------------|
B|---------------------------------|---------------------------------|---------------------------------|
G|---------------------------------|---------------------------------|---------------------------------|
D|---------------------------------|---------------------------------|---------------------------------|
A|-0---0---0---0---0---0---0---0---|-7---7---7---7---7---7---7---7---|-7---7---7---7---7---7---7---7---|
D|-0---0---0---0---0---0---0---0---|-7---7---7---7---7---7---7---7---|-7---7---7---7---7---7---7---7---|


E|---------------------------------|---------------------------------|---------------------------------|
B|---------------------------------|---------------------------------|---------------------------------|
G|---------------------------------|---------------------------------|---------------------------------|
D|---------------------------------|---------------------------------|---------------------------------|
A|-3---3---3---3---3---3---3---3---|-3---3---3---3---3---3---3---3---|-3---3---3---3---3---3---3---3---|
D|-3---3---3---3---3---3---3---3---|-3---3---3---3---3---3---3---3---|-3---3---3---3---3---3---3---3---|


E|---------------------------------|
B|---------------------------------|
G|---------------------------------|
D|---------------------------------|
A|-3---3---3---3---3---3---3---3---|
D|-3---3---3---3---3---3---3---3---|



>>>>>>>>>>>>>>>>>>>>>>>>>>>>>>>>>>>>>> (1:17) Verse 2 (Guitar 2 Play This Part) <<<<<<<<<<<<<<<<<<<<<<<<<<<<<<<


>>>>>>>>>>>>>>>>>>>>>>>>>>>>>>>>>>>>>>>>>>>>>>>>>>> (1:21) Verse 2 <<<<<<<<<<<<<<<<<<<<<<<<<<<<<<<<<<<<<<<<<<<<<

E|---------------------------------|---------------------------------|---------------------------------|
B|---------------------------------|---------------------------------|---------------------------------|
G|---------------------------------|---------------------------------|---------------------------------|
D|---------------------------------|---------------------------------|---------------------------------|
A|----------------------\\\\12-----|-3---3---3---3---3---3---3---3---|-3---3---3---3---3---3---3---3---|
D|----------------------\\\\12-----|-3---3---3---3---3---3---3---3---|-3---3---3---3---3---3---3---3---|


E|---------------------------------|---------------------------------|---------------------------------|
B|---------------------------------|---------------------------------|---------------------------------|
G|---------------------------------|---------------------------------|---------------------------------|
D|---------------------------------|---------------------------------|---------------------------------|
A|-3---3---3---3---3---3---3---3---|-3---3---3---3---3---3---3---3---|-7---7---7---7---7---7---7---7---|
D|-3---3---3---3---3---3---3---3---|-3---3---3---3---3---3---3---3---|-7---7---7---7---7---7---7---7---|


E|---------------------------------|---------------------------------|---------------------------------|
B|---------------------------------|---------------------------------|---------------------------------|
G|---------------------------------|---------------------------------|---------------------------------|
D|---------------------------------|-5---5---5---5---5---5---5---5---|-5---5---5---5---5---5---5---5---|
A|-7---7---7---7---7---7---7---7---|-3---3---3---3---3---3---3---3---|-3---3---3---3---3---3---3---3---|
D|-7---7---7---7---7---7---7---7---|---------------------------------|---------------------------------|


E|---------------------------------|---------------------------------|---------------------------------|
B|---------------------------------|---------------------------------|---------------------------------|
G|---------------------------------|---------------------------------|---------------------------------|
D|---------------------------------|---------------------------------|---------------------------------|
A|-3---3---3---3---3---3---3---3---|-3---3---3---3---3---3---3---3---|-3---3---3---3---3---3---3---3---|
D|-3---3---3---3---3---3---3---3---|-3---3---3---3---3---3---3---3---|-3---3---3---3---3---3---3---3---|



>>>>>>>>>>>>>>>>>>>>>>>>>>>>>>>>>>>>>>>>>>>> (1:38) Pre-chorus <<<<<<<<<<<<<<<<<<<<<<<<<<<<<<<<<<<<<<<<<<<<<<<<

E|------------------------------------------|-3---3---------------3---3---------------|
B|------------------------------------------|-1---1---------------1---1---------------|
G|------------------------------------------|-2---2---------------2---2---------------|
D|----2---2---2---2-------------------------|-----------------------------------------|
A|----3---3---3---3-------3--3--3--3--3--3--|---------3--3--3--3----------3--3--3--3--|
D|----2---2---2---2-------------------------|-----------------------------------------|
                          *  *  *  *  *  *            *  *  *  *          *  *  *  *


E|---------------------------------------|-3---3---------------3---3--------|
B|---------------------------------------|-1---1---------------1---1--------|
G|---------------------------------------|-2---2---------------2---2--------|
D|-3---3---3---3-------------------------|----------------------------------|
A|-3---3---3---3-------3--3--3--3--3--3--|---------3--3--3--3---------------|
D|-3---3---3---3-------------------------|----------------------------------|
                       *  *  *  *  *  *            *  *  *  *


>>>>>>>>>>>>>>>>>>>>>>>>>>>>>>>>>>>>>>>>>>>>>>>>>>>>> (1:43) Chorus <<<<<<<<<<<<<<<<<<<<<<<<<<<<<<<<<<<<<<<<<<<<

E|---------------------------------|---------------------------------|---------------------------------|
B|---------------------------------|---------------------------------|---------------------------------|
G|---------------------------------|---------------------------------|---------------------------------|
D|---------------------------------|---------------------------------|---------------------------------|
A|-0---0---0---0---0---0---0---0---|-0---0---0---0---0---0---0---0---|-7---7---7---7---7---7---7---7---|
D|-0---0---0---0---0---0---0---0---|-0---0---0---0---0---0---0---0---|-7---7---7---7---7---7---7---7---|


E|---------------------------------|---------------------------------|---------------------------------|
B|---------------------------------|---------------------------------|---------------------------------|
G|---------------------------------|---------------------------------|---------------------------------|
D|---------------------------------|---------------------------------|---------------------------------|
A|-7---7---7---7---7---7---7---7---|-3---3---3---3---3---3---3---3---|-3---3---3---3---3---3---3---3---|
D|-7---7---7---7---7---7---7---7---|-3---3---3---3---3---3---3---3---|-3---3---3---3---3---3---3---3---|


E|---------------------------------|---------------------------------|---------------------------------|
B|---------------------------------|---------------------------------|---------------------------------|
G|---------------------------------|---------------------------------|---------------------------------|
D|-5---5---5---5---5---5---5---5---|---------------------------------|---------------------------------|
A|-3---3---3---3---3---3---3---3---|-5---5---5---5---5---5---5---5---|-0---0---0---0---0---0---0---0---|
D|---------------------------------|-5---5---5---5---5---5---5---5---|-0---0---0---0---0---0---0---0---|


E|---------------------------------|---------------------------------|---------------------------------|
B|---------------------------------|---------------------------------|---------------------------------|
G|---------------------------------|---------------------------------|---------------------------------|
D|---------------------------------|---------------------------------|---------------------------------|
A|-0---0---0---0---0---0---0---0---|-7---7---7---7---7---7---7---7---|-7---7---7---7---7---7---7---7---|
D|-0---0---0---0---0---0---0---0---|-7---7---7---7---7---7---7---7---|-7---7---7---7---7---7---7---7---|


E|---------------------------------|---------------------------------|---------------------------------|
B|---------------------------------|---------------------------------|---------------------------------|
G|---------------------------------|---------------------------------|---------------------------------|
D|---------------------------------|---------------------------------|---------------------------------|
A|-3---3---3---3---3---3---3---3---|-3---3---3---3---3---3---3---3---|-3---3---3---3---3---3---3---3---|
D|-3---3---3---3---3---3---3---3---|-3---3---3---3---3---3---3---3---|-3---3---3---3---3---3---3---3---|


E|---------------------------------|
B|---------------------------------|
G|---------------------------------|
D|---------------------------------|
A|-3---3---3---3---3---3---3---3---|
D|-3---3---3---3---3---3---3---3---|



>>>>>>>>>>>>>>>>>>>>>>>>>>>>>>>>>>>>>>>>>>>>>> (2:04) Interlude <<<<<<<<<<<<<<<<<<<<<<<<<<<<<<<<<<<<<<<<<<<<<<<


------------------------------------------- Violin Solo (Sean Mackin) -----------------------------------------


>>>>>>>>>>>>>>>>>>>>>>>>>>>>>>>>>>>>>>>>>>>>>>>> (2:09) Bridge <<<<<<<<<<<<<<<<<<<<<<<<<<<<<<<<<<<<<<<<<<<<<<<<<

E|---------------------|---------------------|---------------------|---------------------|
B|---------------------|---------------------|---------------------|---------------------|
G|---------------------|---------------------|-2----2----2----2----|-5----5----5----5----|
D|-3----3----3----3----|-3----3----3----3----|-2----2----2----2----|-5----5----5----5----|
A|-3----3----3----3----|-3----3----3----3----|-0----0----0----0----|-3----3----3----3----|
D|-3----3----3----3----|-3----3----3----3----|---------------------|---------------------|


E|---------------------|---------------------|---------------------|---------------------|
B|---------------------|---------------------|---------------------|---------------------|
G|---------------------|---------------------|-2----2----2----2----|-5----5----5---------|
D|-3----3----3----3----|-3----3----3----3----|-2----2----2----2----|-5----5----5---------|
A|-3----3----3----3----|-3----3----3----3----|-0----0----0----0----|-3----3----3---------|
D|-3----3----3----3----|-3----3----3----3----|---------------------|---------------------|


E|---------------------|---------------------|---------------------|---------------------|
B|---------------------|---------------------|---------------------|---------------------|
G|---------------------|---------------------|-2----2----2----2----|-5----5----5----5----|
D|-3----3----3----3----|-3----3----3----3----|-2----2----2----2----|-5----5----5----5----|
A|-3----3----3----3----|-3----3----3----3----|-0----0----0----0----|-3----3----3----3----|
D|-3----3----3----3----|-3----3----3----3----|---------------------|---------------------|


E|---------------------|---------------------|---------------------|---------------------|
B|---------------------|---------------------|---------------------|---------------------|
G|---------------------|---------------------|-2----2----2----2----|-5----5----5---------|
D|-3----3----3----3----|-3----3----3----3----|-2----2----2----2----|-5----5----5---------|
A|-3----3----3----3----|-3----3----3----3----|-0----0----0----0----|-3----3----3---------|
D|-3----3----3----3----|-3----3----3----3----|---------------------|----------------/10\-|



>>>>>>>>>>>>>>>>>>>>>>>>>>>>>>>>>>>>>>>>>>>>>> (2:29) Chorus <<<<<<<<<<<<<<<<<<<<<<<<<<<<<<<<<<<<<<<<<<<<<<<<<

E|---------------------------------|---------------------------------|---------------------------------|
B|---------------------------------|---------------------------------|---------------------------------|
G|---------------------------------|---------------------------------|---------------------------------|
D|---------------------------------|---------------------------------|---------------------------------|
A|-0---0---0---0---0---0---0---0---|-0---0---0---0---0---0---0---0---|-7---7---7---7---7---7---7---7---|
D|-0---0---0---0---0---0---0---0---|-0---0---0---0---0---0---0---0---|-7---7---7---7---7---7---7---7---|


E|---------------------------------|---------------------------------|---------------------------------|
B|---------------------------------|---------------------------------|---------------------------------|
G|---------------------------------|---------------------------------|---------------------------------|
D|---------------------------------|---------------------------------|---------------------------------|
A|-7---7---7---7---7---7---7---7---|-3---3---3---3---3---3---3---3---|-3---3---3---3---3---3---3---3---|
D|-7---7---7---7---7---7---7---7---|-3---3---3---3---3---3---3---3---|-3---3---3---3---3---3---3---3---|


E|---------------------------------|---------------------------------|---------------------------------|
B|---------------------------------|---------------------------------|---------------------------------|
G|---------------------------------|---------------------------------|---------------------------------|
D|-5---5---5---5---5---5---5---5---|---------------------------------|---------------------------------|
A|-3---3---3---3---3---3---3---3---|-5---5---5---5---5---5---5---5---|-0---0---0---0---0---0---0---0---|
D|---------------------------------|-5---5---5---5---5---5---5---5---|-0---0---0---0---0---0---0---0---|


E|---------------------------------|---------------------------------|---------------------------------|
B|---------------------------------|---------------------------------|---------------------------------|
G|---------------------------------|---------------------------------|---------------------------------|
D|---------------------------------|---------------------------------|---------------------------------|
A|-0---0---0---0---0---0---0---0---|-7---7---7---7---7---7---7---7---|-7---7---7---7---7---7---7---7---|
D|-0---0---0---0---0---0---0---0---|-7---7---7---7---7---7---7---7---|-7---7---7---7---7---7---7---7---|


E|---------------------------------|---------------------------------|---------------------------------|
B|---------------------------------|---------------------------------|---------------------------------|
G|---------------------------------|---------------------------------|---------------------------------|
D|---------------------------------|---------------------------------|---------------------------------|
A|-3---3---3---3---3---3---3---3---|-3---3---3---3---3---3---3---3---|-3---3---3---3---3---3---3---3---|
D|-3---3---3---3---3---3---3---3---|-3---3---3---3---3---3---3---3---|-3---3---3---3---3---3---3---3---|


E|---------------------------------|
B|---------------------------------|
G|---------------------------------|
D|---------------------------------|
A|-3---3---3---3---3---3---3---3---|
D|-3---3---3---3---3---3---3---3---|



>>>>>>>>>>>>>>>>>>>>>>>>>>>>>>>>>>>>>>>>>>>>> (2:49) Guitar Solo <<<<<<<<<<<<<<<<<<<<<<<<<<<<<<<<<<<<<<<<<<<<<<<

E|---------------------------------|---------------------------------|---------------------------------|
B|---------------------------------|---------------------------------|---------------------------------|
G|---------------------------------|---------------------------------|---------------------------------|
D|---------------------------------|---------------------------------|---------------------------------|
A|-0---0---0---0---0---0---0---0---|-0---0---0---0---0---0---0---0---|-7---7---7---7---7---7---7---7---|
D|-0---0---0---0---0---0---0---0---|-0---0---0---0---0---0---0---0---|-7---7---7---7---7---7---7---7---|


E|---------------------------------|---------------------------------|---------------------------------|
B|---------------------------------|---------------------------------|---------------------------------|
G|---------------------------------|---------------------------------|---------------------------------|
D|---------------------------------|---------------------------------|---------------------------------|
A|-7---7---7---7---7---7---7---7---|-3---3---3---3---3---3---3---3---|-3---3---3---3---3---3---3---3---|
D|-7---7---7---7---7---7---7---7---|-3---3---3---3---3---3---3---3---|-3---3---3---3---3---3---3---3---|


E|---------------------------------|---------------------------------|---------------------------------|
B|---------------------------------|---------------------------------|---------------------------------|
G|---------------------------------|---------------------------------|---------------------------------|
D|-5---5---5---5---5---5---5---5---|---------------------------------|---------------------------------|
A|-3---3---3---3---3---3---3---3---|-5---5---5---5---5---5---5---5---|-0---0---0---0---0---0---0---0---|
D|---------------------------------|-5---5---5---5---5---5---5---5---|-0---0---0---0---0---0---0---0---|


E|---------------------------------|---------------------------------|---------------------------------|
B|---------------------------------|---------------------------------|---------------------------------|
G|---------------------------------|---------------------------------|---------------------------------|
D|---------------------------------|---------------------------------|---------------------------------|
A|-0---0---0---0---0---0---0---0---|-7---7---7---7---7---7---7---7---|-7---7---7---7---7---7---7---7---|
D|-0---0---0---0---0---0---0---0---|-7---7---7---7---7---7---7---7---|-7---7---7---7---7---7---7---7---|


E|---------------------------------|---------------------------------|---------------------------------|
B|---------------------------------|---------------------------------|---------------------------------|
G|---------------------------------|---------------------------------|---------------------------------|
D|---------------------------------|---------------------------------|---------------------------------|
A|-3---3---3---3---3---3---3---3---|-3---3---3---3---3---3---3---3---|-3---3---3---3---3---3---3---3---|
D|-3---3---3---3---3---3---3---3---|-3---3---3---3---3---3---3---3---|-3---3---3---3---3---3---3---3---|


E|---------------------------------|-----------------|--------|--------|--------|--------|--------|--------|
B|---------------------------------|-----------------|--------|--------|--------|--------|--------|--------|
G|---------------------------------|-----------------|--------|--------|--------|--------|--------|--------|
D|---------------------------------|-----------------|--------|--------|--------|--------|--------|--------|
A|-3---3---3---3---3---3---3---3---|-0-----0---0~~~--|-(0)----|-7~~~---|-(7)----|-3~~~---|-(3)----|-(3)----|
D|-3---3---3---3---3---3---3---3---|-0-----0---0~~~--|-(0)----|-7~~~---|-(7)----|-3~~~---|-(3)----|-(3)----|


XXXXXXXXXXXXXXXXXXXXXXXXXXXXXXXXXXXXXXXXXXXXXXXXXXXXXXXXXXXXXXXXXXXXXXXXXXXXXXXXXXXXXXXXXXXXXXXXXXXXXXXXXXXXXXXX

Guitar 2

Intro

E|---------------------|---------------------|---------------------|---------------------|
B|---------------------|---------------------|---------------------|---------------------|
G|---------------------|---------------------|---------------------|---------------------|
D|---------------------|---------------------|---------------------|---------------------|
A|---------------------|---------------------|---------------------|---------------------|
D|-3----3----3----3----|-3----3----3----3----|-3----3----3----3----|-3----3----3----3----|


E|---------------------|---------------------|---------------------|---------------------|
B|---------------------|---------------------|---------------------|---------------------|
G|---------------------|---------------------|---------------------|---------------------|
D|---------------------|---------------------|---------------------|---------------------|
A|---------------------|---------------------|---------------------|---------------------|
D|-3----3----3----3----|-3----3----3----3----|-3----3----3----3----|-3----3----3----3----|


E|---------------------------------|---------------------------------|---------------------------------|
B|---------------------------------|---------------------------------|---------------------------------|
G|---------------------------------|---------------------------------|---------------------------------|
D|---------------------------------|---------------------------------|---------------------------------|
A|-0---0---0---0---0---0---0---0---|-0---0---0---0---0---0---0---0---|-7---7---7---7---7---7---7---7---|
D|-0---0---0---0---0---0---0---0---|-0---0---0---0---0---0---0---0---|-7---7---7---7---7---7---7---7---|


E|---------------------------------|---------------------------------|---------------------------------|
B|---------------------------------|---------------------------------|---------------------------------|
G|---------------------------------|---------------------------------|---------------------------------|
D|---------------------------------|---------------------------------|---------------------------------|
A|-7---7---7---7---7---7---7---7---|-3---3---3---3---3---3---3---3---|-3---3---3---3---3---3---3---3---|
D|-7---7---7---7---7---7---7---7---|-3---3---3---3---3---3---3---3---|-3---3---3---3---3---3---3---3---|


E|---------------------------------|---------------------------------|---------------------------------|
B|---------------------------------|---------------------------------|---------------------------------|
G|---------------------------------|---------------------------------|---------------------------------|
D|-5---5---5---5---5---5---5---5---|---------------------------------|---------------------------------|
A|-3---3---3---3---3---3---3---3---|-5---5---5---5---5---5---5---5---|-0---0---0---0---0---0---0---0---|
D|---------------------------------|-5---5---5---5---5---5---5---5---|-0---0---0---0---0---0---0---0---|


E|---------------------------------|---------------------------------|---------------------------------|
B|---------------------------------|---------------------------------|---------------------------------|
G|---------------------------------|---------------------------------|---------------------------------|
D|---------------------------------|---------------------------------|---------------------------------|
A|-0---0---0---0---0---0---0---0---|-7---7---7---7---7---7---7---7---|-7---7---7---7---7---7---7---7---|
D|-0---0---0---0---0---0---0---0---|-7---7---7---7---7---7---7---7---|-7---7---7---7---7---7---7---7---|


E|---------------------------------|---------------------------------|---------------------------------|
B|---------------------------------|---------------------------------|---------------------------------|
G|---------------------------------|---------------------------------|---------------------------------|
D|---------------------------------|---------------------------------|---------------------------------|
A|-3---3---3---3---3---3---3---3---|-3---3---3---3---3---3---3---3---|-3---3---3---3---3---3---3---3---|
D|-3---3---3---3---3---3---3---3---|-3---3---3---3---3---3---3---3---|-3---3---3---3---3---3---3---3---|


E|---------------------------------|
B|---------------------------------|
G|---------------------------------|
D|---------------------------------|
A|-3---3---3---3---3---3---3---3---|
D|-3---3---3---3---3---3---3---3---|



>>>>>>>>>>>>>>>>>>>>>>>>>>>>>>>>>>>>>>>>>>>>>>>>>> (0:30) Verse <<<<<<<<<<<<<<<<<<<<<<<<<<<<<<<<<<<<<<<<<<<<<<<

E|-----------------3---------------|-----------------3---------------|-----------------3---------------|
B|-----1---1-----------1---1---1---|-----1---1-----------1---1---1---|-----0---0-----------1---1---1---|
G|---------------------------------|---------------------------------|---------------------------------|
D|-3-----------3-------------------|-3-----------3-------------------|-2-----------2-------------------|
A|---------------------------------|---------------------------------|---------------------------------|
D|---------------------------------|---------------------------------|---------------------------------|


E|-----------------3---------------|-----------------3---------------|-----------------3---------------|
B|-----0---0-----------1---1---1---|-----1---1-----------1---1---1---|-----1---1-----------1---1---1---|
G|---------------------------------|---------------------------------|---------------------------------|
D|-2-----------2-------------------|-3-----------3-------------------|-3-----------3-------------------|
A|---------------------------------|---------------------------------|---------------------------------|
D|---------------------------------|---------------------------------|---------------------------------|


E|-----------------3---------------|-----------------3---------------|-----------------3---------------|
B|-----0---0-----------1---1---1---|-----0---0-----------1---1---1---|-----1---1-----------1---1---1---|
G|---------------------------------|---------------------------------|---------------------------------|
D|-2-----------2-------------------|-2-----------2-------------------|-3-----------3-------------------|
A|---------------------------------|---------------------------------|---------------------------------|
D|---------------------------------|---------------------------------|---------------------------------|


E|-----------------3---------------|-----------------3---------------|-----------------3---------------|
B|-----1---1-----------1---1---1---|-----0---0-----------1---1---1---|-----0---0-----------1---1---1---|
G|---------------------------------|---------------------------------|---------------------------------|
D|-3-----------3-------------------|-2-----------2-------------------|-2-----------2-------------------|
A|---------------------------------|---------------------------------|---------------------------------|
D|---------------------------------|---------------------------------|---------------------------------|


E|-----------------3---------------|-----------------3---------------|-----------------3---------------|
B|-----1---1-----------1---1---1---|-----1---1-----------1---1---1---|-----0---0-----------1---1---1---|
G|---------------------------------|---------------------------------|---------------------------------|
D|-3-----------3-------------------|-3-----------3-------------------|-2-----------2-------------------|
A|---------------------------------|---------------------------------|---------------------------------|
D|---------------------------------|---------------------------------|---------------------------------|


E|-----------------3---------------|
B|-----0---0-----------1---1---1---|
G|---------------------------------|
D|-2-----------2-------------------|
A|---------------------------------|
D|---------------------------------|



>>>>>>>>>>>>>>>>>>>>>>>>>>>>>>>>>>>>>>>>>>>>>>>>>>>> (0:50) Pre-chorus <<<<<<<<<<<<<<<<<<<<<<<<<<<<<<<<<<<<<<<<

E|-------------|---------------------------------------|-3---3---------------3---3---------------|
B|-------------|---------------------------------------|-1---1---------------1---1---------------|
G|-------------|---------------------------------------|-2---2---------------2---2---------------|
D|-------------|-2---2---2---2-------------------------|-----------------------------------------|
A|---\\\\12----|-3---3---3---3-------3--3--3--3--3--3--|---------3--3--3--3----------3--3--3--3--|
D|---\\\\12----|-2---2---2---2-------------------------|-----------------------------------------|
                                     *  *  *  *  *  *            *  *  *  *          *  *  *  *


E|---------------------------------------|-3---3---------------3---3--------|
B|---------------------------------------|-1---1---------------1---1--------|
G|---------------------------------------|-2---2---------------2---2--------|
D|-3---3---3---3-------------------------|----------------------------------|
A|-3---3---3---3-------3--3--3--3--3--3--|---------3--3--3--3---------------|
D|-3---3---3---3-------------------------|----------------------------------|
                       *  *  *  *  *  *            *  *  *  *


>>>>>>>>>>>>>>>>>>>>>>>>>>>>>>>>>>>>>>>>>>>>>>>>>>>>> (0:57) Chorus <<<<<<<<<<<<<<<<<<<<<<<<<<<<<<<<<<<<<<<<<<<<

E|---------------------------------|---------------------------------|---------------------------------|
B|---------------------------------|---------------------------------|---------------------------------|
G|---------------------------------|---------------------------------|---------------------------------|
D|---------------------------------|---------------------------------|---------------------------------|
A|-0---0---0---0---0---0---0---0---|-0---0---0---0---0---0---0---0---|-7---7---7---7---7---7---7---7---|
D|-0---0---0---0---0---0---0---0---|-0---0---0---0---0---0---0---0---|-7---7---7---7---7---7---7---7---|


E|---------------------------------|---------------------------------|---------------------------------|
B|---------------------------------|---------------------------------|---------------------------------|
G|---------------------------------|---------------------------------|---------------------------------|
D|---------------------------------|---------------------------------|---------------------------------|
A|-7---7---7---7---7---7---7---7---|-3---3---3---3---3---3---3---3---|-3---3---3---3---3---3---3---3---|
D|-7---7---7---7---7---7---7---7---|-3---3---3---3---3---3---3---3---|-3---3---3---3---3---3---3---3---|


E|---------------------------------|---------------------------------|---------------------------------|
B|---------------------------------|---------------------------------|---------------------------------|
G|---------------------------------|---------------------------------|---------------------------------|
D|-5---5---5---5---5---5---5---5---|---------------------------------|---------------------------------|
A|-3---3---3---3---3---3---3---3---|-5---5---5---5---5---5---5---5---|-0---0---0---0---0---0---0---0---|
D|---------------------------------|-5---5---5---5---5---5---5---5---|-0---0---0---0---0---0---0---0---|


E|---------------------------------|---------------------------------|---------------------------------|
B|---------------------------------|---------------------------------|---------------------------------|
G|---------------------------------|---------------------------------|---------------------------------|
D|---------------------------------|---------------------------------|---------------------------------|
A|-0---0---0---0---0---0---0---0---|-7---7---7---7---7---7---7---7---|-7---7---7---7---7---7---7---7---|
D|-0---0---0---0---0---0---0---0---|-7---7---7---7---7---7---7---7---|-7---7---7---7---7---7---7---7---|


E|---------------------------------|---------------------------------|---------------------------------|
B|---------------------------------|---------------------------------|---------------------------------|
G|---------------------------------|---------------------------------|---------------------------------|
D|---------------------------------|---------------------------------|---------------------------------|
A|-3---3---3---3---3---3---3---3---|-3---3---3---3---3---3---3---3---|-3---3---3---3---3---3---3---3---|
D|-3---3---3---3---3---3---3---3---|-3---3---3---3---3---3---3---3---|-3---3---3---3---3---3---3---3---|


E|---------------------------------|
B|---------------------------------|
G|---------------------------------|
D|---------------------------------|
A|-3---3---3---3---3---3---3---3---|
D|-3---3---3---3---3---3---3---3---|



>>>>>>>>>>>>>>>>>>>>>>>>>>>>>>>>>>>>>>>>>>>>>>>>>> (1.17) Verse <<<<<<<<<<<<<<<<<<<<<<<<<<<<<<<<<<<<<<<<<<<<<<<<

E|-----------------3---------------|-----------------3---------------|-----------------3---------------|
B|-----1---1-----------1---1---1---|-----1---1-----------1---1---1---|-----0---0-----------1---1---1---|
G|---------------------------------|---------------------------------|---------------------------------|
D|-3-----------3-------------------|-3-----------3-------------------|-2-----------2-------------------|
A|---------------------------------|---------------------------------|---------------------------------|
D|---------------------------------|---------------------------------|---------------------------------|


E|-----------------3---------------|-----------------3---------------|-----------------3---------------|
B|-----0---0-----------------------|-----1---1-----------1---1---1---|-----1---1-----------1---1---1---|
G|---------------------------------|---------------------------------|---------------------------------|
D|-2-----------2-------\\\\--------|-3-----------3-------------------|-3-----------3-------------------|
A|---------------------\\\\--------|---------------------------------|---------------------------------|
D|---------------------\\\\--------|---------------------------------|---------------------------------|


E|-----------------3---------------|-----------------3---------------|-----------------3---------------|
B|-----0---0-----------1---1---1---|-----0---0-----------1---1---1---|-----1---1-----------1---1---1---|
G|---------------------------------|---------------------------------|---------------------------------|
D|-2-----------2-------------------|-2-----------2-------------------|-3-----------3-------------------|
A|---------------------------------|---------------------------------|---------------------------------|
D|---------------------------------|---------------------------------|---------------------------------|


E|-----------------3---------------|-----------------3---------------|-----------------3---------------|
B|-----1---1-----------1---1---1---|-----0---0-----------1---1---1---|-----0---0-----------1---1---1---|
G|---------------------------------|---------------------------------|---------------------------------|
D|-3-----------3-------------------|-2-----------2-------------------|-2-----------2-------------------|
A|---------------------------------|---------------------------------|---------------------------------|
D|---------------------------------|---------------------------------|---------------------------------|


E|-----------------3---------------|-----------------3---------------|-----------------3---------------|
B|-----1---1-----------1---1---1---|-----1---1-----------1---1---1---|-----0---0-----------1---1---1---|
G|---------------------------------|---------------------------------|---------------------------------|
D|-3-----------3-------------------|-3-----------3-------------------|-2-----------2-------------------|
A|---------------------------------|---------------------------------|---------------------------------|
D|---------------------------------|---------------------------------|---------------------------------|


E|-----------------3---------------|
B|-----0---0-----------1---1---1---|
G|---------------------------------|
D|-2-----------2-------------------|
A|---------------------------------|
D|---------------------------------|



>>>>>>>>>>>>>>>>>>>>>>>>>>>>>>>>>>>>>>>>>>>> (1:38) Pre-chorus <<<<<<<<<<<<<<<<<<<<<<<<<<<<<<<<<<<<<<<<<<<<<<<<<

E|------------------------------------------|-3---3---------------3---3---------------|
B|------------------------------------------|-1---1---------------1---1---------------|
G|------------------------------------------|-2---2---------------2---2---------------|
D|----2---2---2---2-------------------------|-----------------------------------------|
A|----3---3---3---3-------3--3--3--3--3--3--|---------3--3--3--3----------3--3--3--3--|
D|----2---2---2---2-------------------------|-----------------------------------------|
                          *  *  *  *  *  *            *  *  *  *          *  *  *  *


E|---------------------------------------|-3---3---------------3---3--------|
B|---------------------------------------|-1---1---------------1---1--------|
G|---------------------------------------|-2---2---------------2---2--------|
D|-3---3---3---3-------------------------|----------------------------------|
A|-3---3---3---3-------3--3--3--3--3--3--|---------3--3--3--3---------------|
D|-3---3---3---3-------------------------|----------------------------------|
                       *  *  *  *  *  *            *  *  *  *


>>>>>>>>>>>>>>>>>>>>>>>>>>>>>>>>>>>>>>>>>>>>>>>>>>>>> (1:43) Chorus <<<<<<<<<<<<<<<<<<<<<<<<<<<<<<<<<<<<<<<<<<<<

E|---------------------------------|---------------------------------|---------------------------------|
B|---------------------------------|---------------------------------|---------------------------------|
G|---------------------------------|---------------------------------|---------------------------------|
D|---------------------------------|---------------------------------|---------------------------------|
A|-0---0---0---0---0---0---0---0---|-0---0---0---0---0---0---0---0---|-7---7---7---7---7---7---7---7---|
D|-0---0---0---0---0---0---0---0---|-0---0---0---0---0---0---0---0---|-7---7---7---7---7---7---7---7---|


E|---------------------------------|---------------------------------|---------------------------------|
B|---------------------------------|---------------------------------|---------------------------------|
G|---------------------------------|---------------------------------|---------------------------------|
D|---------------------------------|---------------------------------|---------------------------------|
A|-7---7---7---7---7---7---7---7---|-3---3---3---3---3---3---3---3---|-3---3---3---3---3---3---3---3---|
D|-7---7---7---7---7---7---7---7---|-3---3---3---3---3---3---3---3---|-3---3---3---3---3---3---3---3---|


E|---------------------------------|---------------------------------|---------------------------------|
B|---------------------------------|---------------------------------|---------------------------------|
G|---------------------------------|---------------------------------|---------------------------------|
D|-5---5---5---5---5---5---5---5---|---------------------------------|---------------------------------|
A|-3---3---3---3---3---3---3---3---|-5---5---5---5---5---5---5---5---|-0---0---0---0---0---0---0---0---|
D|---------------------------------|-5---5---5---5---5---5---5---5---|-0---0---0---0---0---0---0---0---|


E|---------------------------------|---------------------------------|---------------------------------|
B|---------------------------------|---------------------------------|---------------------------------|
G|---------------------------------|---------------------------------|---------------------------------|
D|---------------------------------|---------------------------------|---------------------------------|
A|-0---0---0---0---0---0---0---0---|-7---7---7---7---7---7---7---7---|-7---7---7---7---7---7---7---7---|
D|-0---0---0---0---0---0---0---0---|-7---7---7---7---7---7---7---7---|-7---7---7---7---7---7---7---7---|


E|---------------------------------|---------------------------------|---------------------------------|
B|---------------------------------|---------------------------------|---------------------------------|
G|---------------------------------|---------------------------------|---------------------------------|
D|---------------------------------|---------------------------------|---------------------------------|
A|-3---3---3---3---3---3---3---3---|-3---3---3---3---3---3---3---3---|-3---3---3---3---3---3---3---3---|
D|-3---3---3---3---3---3---3---3---|-3---3---3---3---3---3---3---3---|-3---3---3---3---3---3---3---3---|


E|---------------------------------|
B|---------------------------------|
G|---------------------------------|
D|---------------------------------|
A|-3---3---3---3---3---3---3---3---|
D|-3---3---3---3---3---3---3---3---|



>>>>>>>>>>>>>>>>>>>>>>>>>>>>>>>>>>>>>>>>>>>>>> (2:04) Interlude <<<<<<<<<<<<<<<<<<<<<<<<<<<<<<<<<<<<<<<<<<<<<<<<


------------------------------------------- Violin Solo (Sean Mackin) ------------------------------------------


>>>>>>>>>>>>>>>>>>>>>>>>>>>>>>>>>>>>>>>>>>>>>>>> (2:09) Bridge <<<<<<<<<<<<<<<<<<<<<<<<<<<<<<<<<<<<<<<<<<<<<<<<<

E|---------------------|---------------------|---------------------|---------------------|
B|---------------------|---------------------|---------------------|---------------------|
G|---------------------|---------------------|---------------------|---------------------|
D|---------------------|---------------------|---------------------|---------------------|
A|---------------------|---------------------|---------------------|---------------------|
D|-3----3----3----3----|-3----3----3----3----|-3----3----3----3----|-3----3----3----3----|


E|---------------------|---------------------|---------------------|---------------------|
B|---------------------|---------------------|---------------------|---------------------|
G|---------------------|---------------------|---------------------|---------------------|
D|---------------------|---------------------|---------------------|---------------------|
A|---------------------|---------------------|---------------------|---------------------|
D|-3----3----3----3----|-3----3----3----3----|-3----3----3----3----|-3----3----3----3----|


E|---------------------|---------------------|---------------------|---------------------|
B|---------------------|---------------------|---------------------|---------------------|
G|---------------------|---------------------|---------------------|---------------------|
D|---------------------|---------------------|---------------------|---------------------|
A|---------------------|---------------------|---------------------|---------------------|
D|-3----3----3----3----|-3----3----3----3----|-3----3----3----3----|-3----3----3----3----|


E|---------------------|---------------------|---------------------|---------------------|
B|---------------------|---------------------|---------------------|---------------------|
G|---------------------|---------------------|---------------------|---------------------|
D|---------------------|---------------------|---------------------|---------------------|
A|---------------------|---------------------|---------------------|---------------------|
D|-3----3----3----3----|-3----3----3----3----|-3----3----3----3----|-3----3----3----3----|



>>>>>>>>>>>>>>>>>>>>>>>>>>>>>>>>>>>>>>>>>>>>>> (2:29) Chorus <<<<<<<<<<<<<<<<<<<<<<<<<<<<<<<<<<<<<<<<<<<<<<<<<<<

E|---------------------------------|---------------------------------|---------------------------------|
B|---------------------------------|---------------------------------|---------------------------------|
G|---------------------------------|---------------------------------|---------------------------------|
D|---------------------------------|---------------------------------|---------------------------------|
A|-0---0---0---0---0---0---0---0---|-0---0---0---0---0---0---0---0---|-7---7---7---7---7---7---7---7---|
D|-0---0---0---0---0---0---0---0---|-0---0---0---0---0---0---0---0---|-7---7---7---7---7---7---7---7---|


E|---------------------------------|---------------------------------|---------------------------------|
B|---------------------------------|---------------------------------|---------------------------------|
G|---------------------------------|---------------------------------|---------------------------------|
D|---------------------------------|---------------------------------|---------------------------------|
A|-7---7---7---7---7---7---7---7---|-3---3---3---3---3---3---3---3---|-3---3---3---3---3---3---3---3---|
D|-7---7---7---7---7---7---7---7---|-3---3---3---3---3---3---3---3---|-3---3---3---3---3---3---3---3---|


E|---------------------------------|---------------------------------|---------------------------------|
B|---------------------------------|---------------------------------|---------------------------------|
G|---------------------------------|---------------------------------|---------------------------------|
D|-5---5---5---5---5---5---5---5---|---------------------------------|---------------------------------|
A|-3---3---3---3---3---3---3---3---|-5---5---5---5---5---5---5---5---|-0---0---0---0---0---0---0---0---|
D|---------------------------------|-5---5---5---5---5---5---5---5---|-0---0---0---0---0---0---0---0---|


E|---------------------------------|---------------------------------|---------------------------------|
B|---------------------------------|---------------------------------|---------------------------------|
G|---------------------------------|---------------------------------|---------------------------------|
D|---------------------------------|---------------------------------|---------------------------------|
A|-0---0---0---0---0---0---0---0---|-7---7---7---7---7---7---7---7---|-7---7---7---7---7---7---7---7---|
D|-0---0---0---0---0---0---0---0---|-7---7---7---7---7---7---7---7---|-7---7---7---7---7---7---7---7---|


E|---------------------------------|---------------------------------|---------------------------------|
B|---------------------------------|---------------------------------|---------------------------------|
G|---------------------------------|---------------------------------|---------------------------------|
D|---------------------------------|---------------------------------|---------------------------------|
A|-3---3---3---3---3---3---3---3---|-3---3---3---3---3---3---3---3---|-3---3---3---3---3---3---3---3---|
D|-3---3---3---3---3---3---3---3---|-3---3---3---3---3---3---3---3---|-3---3---3---3---3---3---3---3---|


E|---------------------------------|
B|---------------------------------|
G|---------------------------------|
D|---------------------------------|
A|-3---3---3---3---3---3---3---3---|
D|-3---3---3---3---3---3---3---3---|



>>>>>>>>>>>>>>>>>>>>>>>>>>>>>>>>>>>>>>>>>>>>> (2:49) Guitar Solo <<<<<<<<<<<<<<<<<<<<<<<<<<<<<<<<<<<<<<<<<<<<<<<

e|---------------12~---------------12~-----------|
B|---13----15----------13----15----------13~-----|
G|-----------------------------------------------|
D|-----------------------------------------------|
A|-----------------------------------------------|
D|-----------------------------------------------|


e|---------------------------------------------------------------------|
B|---------------------------------------------------------------------|
G|------------------------------------------------10---12---14---12~---|
D|-------------10--------10---12---10---12---14------------------------|
A|---12---14--------14-------------------------------------------------|
D|---------------------------------------------------------------------|


e|---15b17b15----12~-------------|
B|----------------------13-------|
G|-------------------------------|
D|-------------------------------|
A|-------------------------------|
D|-------------------------------|


e|---12~----------------------------19--------15---------------------------------------------|
B|--------------17---18---17----------------------------15h17p15----------15h17----17b18~~---|
G|---------17------------------17--------17--------17------------17p16h17--------------------|
D|-------------------------------------------------------------------------------------------|
A|-------------------------------------------------------------------------------------------|
D|-------------------------------------------------------------------------------------------|


e|---------------------------------------------|
B|---17p15--17b18~---17p15--17b18~---17p15-----|
G|---------------------------------------------|
D|---------------------------------------------|
A|---------------------------------------------|
D|---------------------------------------------|


e|----------------------------12~~---|
B|------------13------13--15---------|
G|---14~--12------12-----------------|
D|-----------------------------------|
A|-----------------------------------|
D|-----------------------------------|


e|----------12------12h13--15~---|
B|---13h15------15---------------|
G|-------------------------------|
D|-------------------------------|
A|-------------------------------|
D|-------------------------------|


e|----------17-17-17-17-17-17---------19-19-19-19-19-19------------|
B|---17h18---------------------17h20---------------------17h20-----|
G|-----------------------------------------------------------------|
D|-----------------------------------------------------------------|
A|-----------------------------------------------------------------|
D|-----------------------------------------------------------------|


e|---19h20p19----19h20p19----19h20p19-------19-19-------20-20-------19-19-------20-20----------|
B|------------20----------20----------20----------20-20-------20-20-------20-20-------20-20----|
G|---------------------------------------------------------------------------------------------|
D|---------------------------------------------------------------------------------------------|
A|---------------------------------------------------------------------------------------------|
D|---------------------------------------------------------------------------------------------|



xxxxxxxxxxxxxxxxxxxxxxxxxxxxxxxxxxxxxxxxxxxxxxxxxxxxxxxxxxxxxxxxxxxxxxxxxxxxxxxxxxxxxxxxxxxxxxxxxxxxxxxxxxxxxxxx

>>>>>>>>>>>>>>>>>>>>>>>>>>>>>>>>>>>>>>>>>>>> (2:49) Guitar 3 (Solo) <<<<<<<<<<<<<<<<<<<<<<<<<<<<<<<<<<<<<<<<<<<<

e|---12----13----15~---12----13-----15~--12~~-----|
B|------------------------------------------------|
G|------------------------------------------------|
D|------------------------------------------------|
A|------------------------------------------------|
D|------------------------------------------------|


e|----------------------------------------------------------------------|
B|----------------------------------------------------------------------|
G|----------------------------------------------------------------------|
D|----------------------------------------------------------------------|
A|----------------------------------------------------------------------|
D|----------------------------------------------------------------------|


e|---12b13b12--------------------|
B|---------------13~-------------|
G|----------------------14-------|
D|-------------------------------|
A|---------------------
 
 
Yellowcard - Rivertown Blues Tab :: indexed at Ultimate Guitar.
Rivertown Blues tabs @ 911Tabs

About the artist behind Rivertown Blues Tab:

Yellowcard is an alternative rock multi-platinum selling band from Jacksonville, Florida. Their music features a rare contribution to the genre, incorporating the use of a violin.

The band is not currently active and is on a self-described "indefinite hiatus."

Indexed at Wikipedia.

Show us your talent, perform Rivertown Blues Tab!

Here you can post a video or audio performance. Tell me more ...
Where can we find your performance? Tell me more ...
Your comment:
Please, log in to post your performance.