Artists by letter: A B C D E F G H I J K L M N O P Q R S T U V W X Y Z 0-9

Ocean Avenue Acoustic Chords (ver 3) - Yellowcard


 
Ocean Avenue Acoustic Chords
This is a slightly simplified version of the way they play this song in the 2004 AOL session.
This is my first time making a tab so enjoy!








GUITAR 1: Intro: E-F#m-D


VERSE 1:
E                     F#m      D
  There's a place off Ocean Avenue
  Where I used to sit and talk with you
E               F#m              D
  We were both 16 And it felt so right
  Sleeping all day, staying up all
E   F#m D             E    F#m D
  Night, Staying up all night
GUITAR 2: 
INTRO / VERSE 1
e|--------------------------------------------------------------------------
B|--------------------------------------------------------------------------
G|---9-----9----------9------9----------9-----9------------6-------7-------6
D|-----9-----9----------7------7----------7------7----------------7-------7-
A|-7-----7-----7----9------9-----9----7------7-----7-------------7-------7--
E|--------------------------------------------------------------------------

GUITAR 1:
VERSE 2:
E                        F#m                D
  There's a place on the corner of Cherry Street
  We would walk on the beach in our bare feet
E               F#m              D
  We were both 18 And it felt so right
  Sleeping all day, staying up all
E   F#m D             E    F#m D
  Night, Staying up all night
GUITAR 2:
INTRO / VERSE 2
e|--------------------------------------------------------------------------
B|--------------------------------------------------------------------------
G|---9-----9----------9------9----------9-----9------------6-------7-------6
D|-----9-----9----------7------7----------7------7----------------7-------7-
A|-7-----7-----7----9------9-----9----7------7-----7-------------7-------7--
E|--------------------------------------------------------------------------

GUITAR 1&2:
CHORUS 1:
           E        F#m                  D
If I could find you now Things would get better
         E          F#m             D
We would leave this town And run forever
         E           F#m            D
Let your waves crash down on me and take me away, yeah

GUITAR 1:
PREVERSE/INTRO: E-F#m-D
GUITAR 2:
INTRO / PREVERSE 
e|--------------------------------------------------------------------------
B|--------------------------------------------------------------------------
G|---9-----9----------9------9----------9-----9------------6-------7-------6
D|-----9-----9----------7------7----------7------7----------------7-------7-
A|-7-----7-----7----9------9-----9----7------7-----7-------------7-------7--
E|--------------------------------------------------------------------------









GUITAR 1:
VERSE 3:
E                   F#m                  D
  Theres a piece of you that's here with me
  Its everywhere I go It's everything I see
E                F#m                  D
  When I sleep I dream and it gets me by
  I can make believe that you're here
E     F#m D                E    F#m D
  tonight, That you're here tonight

GUITAR 2:
INTRO / VERSE 3:
e|--------------------------------------------------------------------------
B|--------------------------------------------------------------------------
G|---9-----9----------9------9----------9-----9------------6-------7-------6
D|-----9-----9----------7------7----------7------7----------------7-------7-
A|-7-----7-----7----9------9-----9----7------7-----7-------------7-------7--
E|--------------------------------------------------------------------------

GUITAR 1&2:
CHORUS 2:
           E        F#m                  D
If I could find you now Things would get better
         E          F#m             D
We would leave this town And run forever
           E          F#m            D
I know somewhere, somehow We'll be together
         E           F#m            D
Let your waves crash down on me and take me away, yeah

GUITAR 1:
PRE SOLO:
A       SOLO: A-F#m-E-D
GUITAR 2:
e|---------0------|
B|-----0-----0--0-|
G|-1h2---2-----2--|
D|----------------|
A|----------------|
E|----------------|


GUITAR 1&2:
BRIDGE:
A
  I remember that look in your eyes
F#m
  When I told you this was good bye
E
  You were begging me not tonight
    D
Not here Not now
A
  When looking up at the same night sky
F#m
  And keep pretending the sun will not rise
E
  We'll be together for one more night
    D
Somewhere somehow







GUITAR 1&2:
CHORUS 2:
           E        F#m                  D
If I could find you now Things would get better
         E          F#m             D
We would leave this town And run forever
           E          F#m            D
I know somewhere, somehow We'll be together
         E           F#m            D
Let your waves crash down on me and take me away, yeah

THIS PART BELOW IS SUPPOSED TO BE PLAYED ON VIOLIN SO IT IS OPTIONAL FOR YOU TO PLAY IT!
OUTRO:
E-F#m-E
GUITAR 2:
e|-5-------|-5---7---|-5-------|-5--4-------|
B|---5-----|---5---5-|---5-----|-------5----|
G|-----6h7-|---------|-----6h7-|----------6-|
D|---------|---------|---------|------------|
A|---------|---------|---------|------------|
E|---------|---------|---------|------------|
     x8                   x4
 
 
Yellowcard - Ocean Avenue Acoustic Chords :: indexed at Ultimate Guitar.
Ocean Avenue Acoustic tabs @ 911Tabs

About the artist behind Ocean Avenue Acoustic Chords:

Yellowcard is an alternative rock multi-platinum selling band from Jacksonville, Florida. Their music features a rare contribution to the genre, incorporating the use of a violin.

The band is not currently active and is on a self-described "indefinite hiatus."

Indexed at Wikipedia.

Show us your talent, perform Ocean Avenue Acoustic Chords!

Here you can post a video or audio performance. Tell me more ...
Where can we find your performance? Tell me more ...
Your comment:
Please, log in to post your performance.