Artists by letter: A B C D E F G H I J K L M N O P Q R S T U V W X Y Z 0-9

Ocean Avenue Acoustic Chords (ver 2) - Yellowcard


 
Ocean Avenue Acoustic Chords
Yellowcard
Ocean Avenue(Acoustic)
Live at Sessions @ AOL 2004
Submitted by: [email protected]

Key: A

Tuning: Standard EADGBe

Chords used:
E -   022100
F#m - 244222
D -   xx0232
A -   x02220

Intro: E-F#m-D

Verse 1:
E                     F#m      D
  There's a place off Ocean Avenue
  Where I used to sit and talk with you
E               F#m              D
  We were both 16 And it felt so right
  Sleeping all day, staying up all
E   F#m D             E    F#m D
  Night, Staying up all night

Guitar 2: While singing "Night"
e|------------------|
B|------------------|
G|-1-----2----------|
D|----2-----4--2--4-| (x2)
A|------------------|
E|------------------|

Verse 2:
E                        F#m                D
  There's a place on the corner of Cherry Street
  We would walk on the beach in our bare feet
E               F#m              D
  We were both 18 And it felt so right
  Sleeping all day, staying up all
E   F#m D             E    F#m D
  Night, Staying up all night

Guitar 2: While singing "Night"
e|------------------|
B|------------------|
G|-1-----2----------|
D|----2-----4--2--4-| (x2)
A|------------------|
E|------------------|

Chorus 1:
           E        F#m                  D
If I could find you now Things would get better
         E          F#m             D
We would leave this town And run forever
         E           F#m            D
Let your waves crash down on me and take me away, yeah

Interlude: E-F#m-D

Guitar 2:
e|------------------|
B|------------------|
G|-1-----2----------|
D|----2-----4--2--4-| (x2)
A|------------------|
E|------------------|

Verse 3:
E                   F#m                  D
  Theres a piece of you that's here with me
  Its everywhere I go It's everything I see
E                F#m                  D
  When I sleep I dream and it gets me by
  I can make believe that you're here
E     F#m D                E    F#m D
  tonight, That you're here tonight

Guitar 2: While singing "Tonight"
e|------------------|
B|------------------|
G|-1-----2----------|
D|----2-----4--2--4-| (x2)
A|------------------|
E|------------------|

Chorus 2:
           E        F#m                  D
If I could find you now Things would get better
         E          F#m             D
We would leave this town And run forever
           E          F#m            D
I know somewhere, somehow We'll be together
         E           F#m            D
Let your waves crash down on me and take me away, yeah

Interlude: A-- then A-F#m-E-D

Guitar 2:
e|---------0---|
B|-----0-----0-|
G|-1h2---2-----|
D|-------------| (Repeat many times)
A|-------------|
E|-------------|

Bridge:
A
  I remember that look in your eyes
F#m
  When I told you this was good bye
E
  You were begging me not tonight
    D
Not here Not now
A
  When looking up at the same night sky
F#m
  And keep pretending the sun will not rise
E
  We'll be together for one more night
    D
Somewhere somehow

(Repeat Chorus 2)

Outro: E-F#m-D (x2)

Guitar 2:
e|-5-------|-5---7---|-5-------|-5--4-------|
B|---5-----|---5---5-|---5-----|-------5----|
G|-----6h7-|---------|-----6h7-|----------6-|
D|---------|---------|---------|------------|
A|---------|---------|---------|------------|
E|---------|---------|---------|------------|
     x8                   x4
 
 
Yellowcard - Ocean Avenue Acoustic Chords :: indexed at Ultimate Guitar.
Ocean Avenue Acoustic tabs @ 911Tabs

About the artist behind Ocean Avenue Acoustic Chords:

Yellowcard is an alternative rock multi-platinum selling band from Jacksonville, Florida. Their music features a rare contribution to the genre, incorporating the use of a violin.

The band is not currently active and is on a self-described "indefinite hiatus."

Indexed at Wikipedia.

Show us your talent, perform Ocean Avenue Acoustic Chords!

Here you can post a video or audio performance. Tell me more ...
Where can we find your performance? Tell me more ...
Your comment:
Please, log in to post your performance.