Artists by letter: A B C D E F G H I J K L M N O P Q R S T U V W X Y Z 0-9

 
Assy Mcgee Theme Tab
This is 100% Right I played this with the recording

Part 1:

Guitar:

e|-----------------------------------7---------------------------------------|
B|------------------------5h8p5h8p5-----8--5-3-5--3-2--0-2-------------------|
G|---------------------------------------------------------------------------|
D|--7------------------------------------------------------------------------|
A|------7---10---------------------------------------------------------------|
E|--------------10-----------------------------------------------------------|

Bass:

e|---------------------------------------------------------------------------|
B|---------------------------------------------------------------------------|
G|---------------------------------------------------------------------------|
D|-------7-7-7-7-----------------------------11-12-12-12----------------7-7--|
A|-7h10----------10--7-7-7-7--9-10-10-10-10-------------------10-10-10-------|
E|--------------------------------------------------------10-----------------|


e|----------------------------------------------------------|
B|----------------------------------------------------------|
G|----------------------------------------------------------|
D|-7-7------------------------------------------------------|
A|------10--7-7-7-7-7--5--10-10-10--------------------------|
E|----------------------------------------------------------|

Part 2:
  
Guitar(palm mute):

e|-----------------------------------------|
B|-----------------------------------------|
G|------2-------2--------------------------|
D|---5----5-2-0---5-2--0-2-2-0-0-2---------|
A|-----------------------------------------|
E|-----------------------------------------|

Bass:

e|------------------------------|
B|------------------------------|
G|------------------------------|
D|--7-7-------------------------|
A|-------10--7-5-5-5------------|
E|------------------------------|


Part 3:

Guitar:

e|----------------7------------12v--12--10--7---7b--7b--7-5-7--5---5-8-------|
B|-----5h8p5h8p5----8--7-----------------------------------------8-----------|
G|---------------------------------------------------------------------------|
D|---------------------------------------------------------------------------|
A|---------------------------------------------------------------------------|
E|---------------------------------------------------------------------------|

Bass

e|-------------------------------------------------------------------------------|
B|-------------------------------------------------------------------------------|
G|-------------------------------------------------------------------------------|
D|----------7-7-7--7-7-------------------------------------7---------------------|
A|---5-7-10-------------10-7--7-7-7-7--5--10-10-10-10--10----10--7--5-5-5-5--24|
E|-------------------------------------------------------------------------------|



Ending:

Guitar:

e|-------------------------------------|
B|-------------------------------------|
G|---4-2--------4----------------------|
D|--------5--2-----5--2----------------|
A|-----------------------5v--5--7------|
E|-------------------------------------|


Bass:

e|------------------------------------------|
B|------------------------------------------|
G|------------------------------------------|
D|----------------------------7-------------|
A|-----------3-----------3-------10--7------|
E|---0--3-5-----0--3--5---------------------|


 
 
Misc Cartoons - Assy Mcgee Theme Tab :: indexed at Ultimate Guitar.
Assy Mcgee Theme tabs @ 911Tabs

Quick tip, so you can enjoy Assy Mcgee Theme Tab even more:

After the registration (which takes just 10 seconds, remember?) you will be able to use your profile - your very own piece of YourChords.com.

Show us your talent, perform Assy Mcgee Theme Tab!

Here you can post a video or audio performance. Tell me more ...
Where can we find your performance? Tell me more ...
Your comment:
Please, log in to post your performance.