Artists by letter: A B C D E F G H I J K L M N O P Q R S T U V W X Y Z 0-9

 
Blue Skies Chords
Song: Blue Skies
Artist: Willie Nelson
Composed by: Irving Berlin
Album: Stardust
Year: 1978
Tabber: [email protected]


Notes: I saw other versions on the site but I never found the chords in the right tone. 
The solo was not always here. So here is my complete version.

Intro (0:00)

   Bm        Bm/Bb    Bm/A     Bm/Ab
e|--7---7-7--7---7-7--7---7-7--7---7-7--|
B|--7---7-7--7---7-7--7---7-7--7---7-7--|
G|--7---7-7--7---7-7--7---7-7--7---7-7--|
D|--9--------8--------7--------6--------|
A|--------------------------------------|
E|--------------------------------------|

Chorus (0:12)

Bm     Bm/Bb   Bm/A   Bm/Ab
Blue Skies,   smiling at me
            D          A        D     F#
Nothing but blue skies     do I see
Bm     Bm/Bb   Bm/A   Bm/Ab
Blue birds    singin’ a song
            D         A            D
Nothing but blue skies    from now on

Verse (0:35)

D          D         Gm        D
I never saw the sun shinin so bright
Gm        D      A       D
Never saw things goin so right
D         D        Gm      D
Noticing the days hurryin by
Gm           D     A           D
When your in love, my how they fly by

Chorus (0:47)

Bm     Bm/Bb   Bm/A   Bm/Ab
Blue days,   all of them gone
            D          A           D
Nothing but blue skies     from now on

Solo (0:56)

e-----------------------------------------------|
B------7---------7---6/7-6/7-------7------------|
G----------9-7-9-------------9-7-9-----------7--|
D--9-9-------------------------------7---7-9----|
A-----------------------------------------------|
E-----------------------------------------------|

e-----------------------------------------------------|
B--------------7---------7---7--------7-10------------|
G--6-6-6-6---------9-7-9--------9-7-9--------------7--|
D----------9-9-----------------------------7---7-9----|
A-----------------------------------------------------|
E-----------------------------------------------------|

(1:20)
e------------------------------------------------|
B---------8-10---11-10-8-10---8-7---7------------|
G--7-9-11-------------------------9-----9-7-6-7--|
D------------------------------------------------|
A------------------------------------------------|
E------------------------------------------------|

e------------------------------------------------|
B---------8-10---11-10-8-10---8-7---7------------|
G--7-9-11-------------------------9-----9-7-6-7--|
D------------------------------------------------|
A------------------------------------------------|
E------------------------------------------------|

(1:32)
e------------------------------------------|
B------7----------7---7-------7------------|
G----------9-7-9--------9-7-9-----------7--|
D--9-9--------------------------7---7-9----|
A------------------------------------------|
E------------------------------------------|

Chorus (1:43)

Bm     Bm/Bb   Bm/A   Bm/Ab
Blue Skies,   smiling at me
            D          A        D     F#
Nothing but blue skies     do I see
Bm     Bm/Bb   Bm/A   Bm/Ab
Blue birds    singin’ a song
            D         A            D
Nothing but blue skies    from now on

Chorus (2:06)

    Cm        Cm/B     Cm/Bb    Cm/A
e|---8---8-8--8---8-8--8---8-8--8---8-8--|
B|---8---8-8--8---8-8--8---8-8--8---8-8--|
G|---8---8-8--8---8-8--8---8-8--8---8-8--|
D|--10--------9--------8--------7--------|
A|---------------------------------------|
E|---------------------------------------|

Cm        Cm/B          Cm/Bb    Cm/A
Blue skies    smiling at me
            Eb        Bb     Eb    G
Nothing but blue skies do I see
Cm        Cm/B          Cm/Bb    Cm/A
Blue days,    all of them gone
            Eb        Bb         Eb    G
Nothing but blue skies from now on

Outro chorus (2:29)

Cm        Cm/B          Cm/Bb    Cm/A
Blue skies    smiling at me
            Eb        Bb     Eb    G
Nothing but blue skies do I see
Cm        Cm/B          Cm/Bb    Cm/A
Blue days,    all of them gone
            Eb        Bb         Eb
Nothing but blue skies from now on
 
 
Willie Nelson - Blue Skies Chords :: indexed at Ultimate Guitar.
Blue Skies tabs @ 911Tabs

About the artist behind Blue Skies Chords:

Willie Nelson (born April 30, 1933) is an American singer-songwriter and actor. He is widely regarded as one of the most beloved and notorious country music singers. He reached his greatest fame during the so-called "outlaw country" movement of the 1970s, but remains iconic, especially in American popular culture. In recent years he has continued to tour, record, and perform, and this, combined with activities in advocacy of cannabis, as well as a well-publicized 2006 arrest for cannabis possession, have made him the subject of renewed media attention.

Indexed at Wikipedia.

Show us your talent, perform Blue Skies Chords!

Here you can post a video or audio performance. Tell me more ...
Where can we find your performance? Tell me more ...
Your comment:
Please, log in to post your performance.