Artists by letter: A B C D E F G H I J K L M N O P Q R S T U V W X Y Z 0-9

Island In The Sun Tab (ver 5) - Weezer


 
Island In The Sun Tab
Intro

E|-3--5-5--2-2--3-3-|
B|-5--5-5--3-3--3-3-|
G|-4--5-5--2-2--4-4-|
D|------------------|
A|------------------|
E|------------------|

Solo

E|----------------------------------|
B|----------------------------------|
G|---9-7--5-4--5-4--0-4-2--0--------|
D|-7-------------------------4--5-5-|
A|----------------------------------|
E|----------------------------------|

Hope this helps somebody.
 
 
Weezer - Island In The Sun Tab :: indexed at Ultimate Guitar.
Island In The Sun tabs @ 911Tabs

About the artist behind Island In The Sun Tab:

Weezer (IPA: /ˈwizɚ/) is a Grammy nominated American rock band from Los Angeles, California formed in 1992 by Rivers Cuomo (lead vocals, guitar), Patrick Wilson (drums, backing vocals), Matt Sharp (bass, backing vocals), and Jason Cropper (guitar, backing vocals), with the last two replaced by Mikey Welsh and Brian Bell, respectively. Mikey Welsh was later replaced with Scott Shriner.[1] They have released six full-length albums, three EPs, and a DVD; the first album was later re-released as a remastered deluxe edition in 2004. Weezer recently released their sixth album on June 3, 2008. They have sold more than 7 million records to date in the US.[2]

Indexed at Wikipedia.

Show us your talent, perform Island In The Sun Tab!

Here you can post a video or audio performance. Tell me more ...
Where can we find your performance? Tell me more ...
Your comment:
Please, log in to post your performance.