Artists by letter: A B C D E F G H I J K L M N O P Q R S T U V W X Y Z 0-9

I Just Threw Out The Love Of My Dreams Acoustic Tab - Weezer


 
I Just Threw Out The Love Of My Dreams Acoustic Tab
-------------------------------------------------------------------------------
                I Just Threw Out The Love Of My Dreams - Weezer
-------------------------------------------------------------------------------
Tabbed by: BTY
This is tabbed according to his live ustream version which can be found here:

https://www.youtube.com/watch?v=D10QtI5xCu4

Tuning: Half-step down

INTRO
eb|-3-------------------3-----------------3-7\--------3/5---------------------|
Bb|---------3-5-3-1-------------3-5-3-1-----------7---------------------------|
Gb|---5-4-2---------4-----5-4-2---------4------5-----7-----4-------------------|
Db|---------------------------------------------------------------------------|
Ab|---------------------------------------------------------------------------|
Eb|---------------------------------------------------------------------------|

eb|-3-5-7-8-7-5-3-2-3\2-3-----------------------------------------------------|
Bb|---------------------------------------------------------------------------|
Gb|---------------------------------------------------------------------------|
Db|---------------------------------------------------------------------------|
Ab|---------------------------------------------------------------------------|
Eb|---------------------------------------------------------------------------|

Verse
F#m    Bm     E              A
I'm so tall, can't get over me
F#m    Bm   E              A
I'm so low, can't get underneath
F#m    Bm  E          A
I must be all these things,
F#m        Bm            E          A
for I just threw out the love of my dreams

Chorus:
F#m         Bm    E           A
She is in my eyes, She is in my ears
F#m         Bm     E           A
She is in my blood, She is in my tears
F#m       Bm      E             A
I breathe love, and see her every day
F#m         Bm         E       A
Even though my love is a world away

Bridge:
C#             D
Oh she's got me wandering
Bm                  E
My righteousness is crumbling

Verse 2: Chords are the same throughout

Never before, have I felt this way
No one is right, but I want for her to stay
I must be made of steel,
for I just threw out the love of my dreams

Chorus:
She's in my eyes, She's in my ears
She's in my blood, She is in my tears
I breathe love, and see her every day
Even though my love is a world away

Bridge:
Oh he's got me wandering
My righteousness is crumbling

2:08 Solo
eb|-3------------------3-----------------3-7\-------5\3-----------------------|
Bb|------------5\4p1-----------3-5-3-1----------7-------4---------------------|
Gb|----5\4-2-2-------4---5\4-2---------4------5---7---------------------------|
Db|---------------------------------------------------------------------------|
Ab|---------------------------------------------------------------------------|
Eb|---------------------------------------------------------------------------|


eb|-3-5-7-8-7-5-3-2-3\2-3-----------------------------------------------------|

Bridge:
Oh he's got me wandering
My righteousness is crumbling
And I see him every day
Even though my love can walk away.

Chorus: Repeat Intro melody 

She's in my eyes, She's in my ears
She's in my blood, She is in my tears
I breathe love, and see her every day
Even though my love is a world away.

GREAT SONG WOOHOO
************************************

| /   slide up
| \   slide down
| h   hammer-on
| p   pull-off
| ~   vibrato
| +   harmonic
| x   Mute note
| b   Bend
| pb  Pre-bend
| br  Bend release
| pbr Pre-bend release
| brb Bend release bend

************************************
 
 
Weezer - I Just Threw Out The Love Of My Dreams Acoustic Tab :: indexed at Ultimate Guitar.
I Just Threw Out The Love Of My Dreams Acoustic tabs @ 911Tabs

About the artist behind I Just Threw Out The Love Of My Dreams Acoustic Tab:

Weezer (IPA: /ˈwizɚ/) is a Grammy nominated American rock band from Los Angeles, California formed in 1992 by Rivers Cuomo (lead vocals, guitar), Patrick Wilson (drums, backing vocals), Matt Sharp (bass, backing vocals), and Jason Cropper (guitar, backing vocals), with the last two replaced by Mikey Welsh and Brian Bell, respectively. Mikey Welsh was later replaced with Scott Shriner.[1] They have released six full-length albums, three EPs, and a DVD; the first album was later re-released as a remastered deluxe edition in 2004. Weezer recently released their sixth album on June 3, 2008. They have sold more than 7 million records to date in the US.[2]

Indexed at Wikipedia.

Show us your talent, perform I Just Threw Out The Love Of My Dreams Acoustic Tab!

Here you can post a video or audio performance. Tell me more ...
Where can we find your performance? Tell me more ...
Your comment:
Please, log in to post your performance.