Artists by letter: A B C D E F G H I J K L M N O P Q R S T U V W X Y Z 0-9

 
Cleopatra Tab
#----------------------------------PLEASE NOTE--------------------------------#
#This file is the author's own work and represents their interpretation of the#
#song. You may only use this file for private study, scholarship, or research.#
#-----------------------------------------------------------------------------#
#-- File created with Instab - http://www.pconline.com/~smcarey/instab.html --#
#-----------------------------------------------------------------------------#

Author/Artist: Weezer 
Title: Cleopatra
Transcribed By: Vanilla Sky

A arpeggio
\ slide down
m mute

Strum at the 22nd fret.
* Play in relatively same position as tab.


Tuning (c# A D G B E), Down ~ 10%, (c#, D) Down ~ 20%
Live 1/2 Step Down (eb ab db gb bb eb), Down ~ 10%, (eb, db) Down ~ 20%
Bedroom Tuning* (eb ab db gb bb eb)
Key: (C + G#)


----|---------------------------|--|-------|
----|----7---7-7-----7-7--7-7-7-|--|-------|
----|----6---6-6-----6-6--6-6-6-|--|-------|
----|----8---8-8-----8-8--8-8-8-|--|-4-----|
----|-9--9---9-9--9--9-9--9-9-9-|--|-4-----|
----|-9-----------9-------------|--|-5-----|
     G1         m                 G2 A                                           

  Intro/Verse (No Drums)



----|---------------|--|----------------------------------|
----|---------------|--|----------------------------------|
----|---------------|--|----------------------------------|
----|---------------|--|-21\20--21\20--18-16-18-20\18-16--|
----|-9---9---6-----|--|----------------------------------|
----|-10--9---7-----|--|----------------------------------|
       

  Chorus                                                                       




----|-----------------|--|---------------|
----|-----------------|--|---------------|
----|-----------------|--|---------------|
----|-----------------|--|---------------|
----|-4---6---1---4---|--|-8-------------|
----|-7---7---2---5---|--|-9-------------|
  

Bridge 1 

                                                                            

----|------------------|
----|------------------|
----|------------------|
----|------------------|
----|-1-1-1-1-1-4-4-6--|
----|-2-2-2-2-2-5-5-9--|
                                                                              

  Bridge 2 




----|---------|-------------|
----|---------|-------------|
----|---------|-------------|
----|---------|-------------|
----|-1-------|-------------|
----|-2-------|-------------|
                Chorus Riff                                                   
  
  G1 Solo  

 
 
Weezer - Cleopatra Tab :: indexed at Ultimate Guitar.
Cleopatra tabs @ 911Tabs

About the artist behind Cleopatra Tab:

Weezer (IPA: /ˈwizɚ/) is a Grammy nominated American rock band from Los Angeles, California formed in 1992 by Rivers Cuomo (lead vocals, guitar), Patrick Wilson (drums, backing vocals), Matt Sharp (bass, backing vocals), and Jason Cropper (guitar, backing vocals), with the last two replaced by Mikey Welsh and Brian Bell, respectively. Mikey Welsh was later replaced with Scott Shriner.[1] They have released six full-length albums, three EPs, and a DVD; the first album was later re-released as a remastered deluxe edition in 2004. Weezer recently released their sixth album on June 3, 2008. They have sold more than 7 million records to date in the US.[2]

Indexed at Wikipedia.

Show us your talent, perform Cleopatra Tab!

Here you can post a video or audio performance. Tell me more ...
Where can we find your performance? Tell me more ...
Your comment:
Please, log in to post your performance.