Artists by letter: A B C D E F G H I J K L M N O P Q R S T U V W X Y Z 0-9

 
Pony Tab
-------------------------------------------------------------------------------
                             PONY - Wavves
-------------------------------------------------------------------------------
Tabbed by: Jack Wilson (sepiaxclouds)
E-mail: [email protected]om

Tuning: E Standard

This was tabbed all by ear, so may not be perfect.

Intro:
e|---0---0---0---0---0---0---0---0---0---0---0---0---0---0---0---0-----------|
B|-5---5---5---5---5---5---5---5---7---7---7---7---7---7---7---7-------------|
G|---------------------------------------------------------------------------|
D|---------------------------------------------------------------------------|
A|---------------------------------------------------------------------------|
E|---------------------------------------------------------------------------|

e|--7---7---7---7---7---7---7---7---5---7---5---7---5---7---5---7------------|
B|-5---5---5---5---5---5---5---5---7---7---7---7---7---7---7---7-------------|
G|---------------------------------------------------------------------------|
D|---------------------------------------------------------------------------|
A|---------------------------------------------------------------------------|
E|---------------------------------------------------------------------------|

Verse:
e|---0---0---0---0---0---0---0---0---0---0---0---0---0---0---0---0-----------|
B|-5---5---5---5---5---5---5---5---7---7---7---7---7---7---7---7-------------|
G|---------------------------------------------------------------------------|
D|---------------------------------------------------------------------------|
A|---------------------------------------------------------------------------|
E|---------------------------------------------------------------------------|

e|---0---0---0---0---0---0---0---0---5---7---5---7---5---7---5---7-----------|
B|-5---5---5---5---7---7---7---7---7---7---7---7---7---7---7---7-------------|
G|---------------------------------------------------------------------------|
D|---------------------------------------------------------------------------|
A|---------------------------------------------------------------------------|
E|---------------------------------------------------------------------------|

Chorus (and the days go on...):
e|---------------------------------------------------------------------------|
B|---------------------------------------------------------------------------|
G|-2-2-2-2-11-11-6-6-7-7-5-5-5-\-6-------------------------------------------|x8
D|-2-2-2-2-11-11-6-6-7-7-5-5-5-\-6-------------------------------------------|
A|-0-0-0-0-9--9--4-4-5-5-7-7-7-\-4-------------------------------------------|
E|---------------------------------------------------------------------------|

Chorus Gtr II (I don't know if this part is necessacary to play, but it starts on the fourth
time you play the Chorus Riff):
e|-------------------------------------|-End on:------------------------------------|
B|-10--10-10-10\9-9-5/7-7--7-7--7-7----|----------5/7-7--7-7--7-7-5/7-7--7-7--7-7---|
G|-------------------------------------|--------------------------------------------|
D|-------------------------------------|x3------------------------------------------|
A|-------------------------------------|--------------------------------------------|
E|-------------------------------------|--------------------------------------------|

E           D             A
  Leave me alone all by myself
E                  D
  But this much is true
F               
  I'll always be lost without you

E           D             A
  Leave me alone all by myself
E                  D
  But this much is true
F               
  I'll always be lost without you


Repeat this again for the rest of the song.

************************************

| /   slide up
| \   slide down
| h   hammer-on
| p   pull-off
| ~   vibrato
| +   harmonic
| x   Mute note
| b   Bend
| pb  Pre-bend
| br  Bend release
| pbr Pre-bend release
| brb Bend release bend

************************************
 
 
Wavves - Pony Tab :: indexed at Ultimate Guitar.
Pony tabs @ 911Tabs
People who played Wavves - Pony Tab also played these songs by Wavves:
So Bored Tab, No Hope Kids Tab, Weed Demon Tab, Post Acid Tab, Green Eyes Chords, To The Dregs Tab

Quick tip, so you can enjoy Pony Tab even more:

YourChords.com Guitar Chords and Tabs Archive is currently indexing over 240'000 songs from 21'000+ different artists. And new chords just keep on coming in, so you will surely never run out of them.

Show us your talent, perform Pony Tab!

Here you can post a video or audio performance. Tell me more ...
Where can we find your performance? Tell me more ...
Your comment:
Please, log in to post your performance.