Artists by letter: A B C D E F G H I J K L M N O P Q R S T U V W X Y Z 0-9

 
The Last Command Tab
Band: W.A.S.P.
Song: The Last Command
Album: The Last Command (1985)
Tuning: Eb

Intro
|---------------------|
|---------------------|
|-----------5---------|
|------5----3---------|
|-5----3----3----5----|
|-3----3---------3----|

Last Bar
|-------------------------|
|-------------------------|
|-----------5-------------|
|------5----3-------------|
|-5----3----3----8--------|
|-3----3---------6--------|

Lead - only this time play both bars
|---------------------------------------------------|
|---------------------------------------------------|
|-12----12-----14----14-----15---14p12h14---10h12---|
|----12-----------12--------------------------------|
|---------------------------------------------------|
|---------------------------------------------------|

|---------------------------------------------------|--------------------------|
|---------------------------------------------------|--------------------------|
|-12----12-----14----14-----15---14p12h14---10h12---|-12---12---12p10p9--------|
|----12-----------12--------------------------------|-------------------12b----|
|---------------------------------------------------|--------------------------|
|---------------------------------------------------|--------------------------|

Verse
|--------------------------------------------------------------------------|
|---------------------------------------------------------------------3----|
|---------------------------------------------------------------------2----|
|-------------------------------------5--------8----------------------0----|
|-5--------3--------5--------3--------3--------6--------5--------3----0----|
|-3--------1--------3--------1--------------------------3--------1---------|

Chorus Rhythm
|---------------------------------|------------------------------|
|---------------------------------|------------------------------|
|-------3---------------3---------|------------------------------|
|-------3---5-3-0-------3---5-3-0-|-5----3/5-3/5-------5---------|
|-5---5-----5-3-0-5---5-----5-3-0-|-3----1/3-1/3--3----3----5----|
|-3---3-----------3---3-----------|---------------1---------3----|

Chorus Lead
|--------------------------------|
|--------------------------------|
|--------------------------------|
|-5-3---5-3---5-3----5-3-------3-|
|-----5-----5-----5------5-3-5---|
|--------------------------------|

Bridge
|-------------------------------------|
|-------------------------------------|
|-------------------------------------|
|-8-----------------8--------7--------|
|-6--------5--------6--------5--------|
|----------3--------------------------|

Solo                      End..
|---------------------|  |-----|
|---------------------|  |-----|
|---------------------|  |-----|
|-7----5----3----5----|  |-2---|
|-5----3----1----3----|  |-0---|
|---------------------|  |-----|


Solo
|-----------------------------------------------------------|
|-20b(22)---20p18h20v-----18---17-18-17-18-20-18-20b(22)----|
|-----------------------------------------------------------|
|-----------------------------------------------------------|
|-----------------------------------------------------------|
|-----------------------------------------------------------|

|--------------------------------------------------------|
|-20b(22)------20-20v-----18---17-18-17-18p17------------|
|---------------------------------------------19-17-19---|
|--------------------------------------------------------|
|--------------------------------------------------------|
|--------------------------------------------------------|

|-------------------------------------------------------------------|
|-------------------------------------------------------------------|
|-------------------------------------------------------------------|
|-----------------------------------------12---10-12-12v---10/8-10v-|
|-----------7----7-8-7-8/10-8-10/12-10-12---------------------------|
|-10---8-10---10----------------------------------------------------|

|---------------------------------------------------------------------20-------20-------|
|-20-20p18p17----17-18-20-18-17-20p18p17----17-18-20-18-22---20-22-20----22-20----22v---|
|-------------19-------------------------19---------------------------------------------|
|---------------------------------------------------------------------------------------|
|---------------------------------------------------------------------------------------|
|---------------------------------------------------------------------------------------|

|-------------------------|
|-------------------------|
|-------------------------|
|-19\17-17\15-15\14----14-|
|-------------------17----|
|-------------------------|

Lead In Last Chorus
|----------------------20--|
|-20-18--------------------|
|-------19-17-19----17-----|
|----------------20--------|
|--------------------------|
|--------------------------|
 
 
W.A.S.P. - The Last Command Tab :: indexed at Ultimate Guitar.
The Last Command tabs @ 911Tabs
People who played W.A.S.P. - The Last Command Tab also played these songs by W.A.S.P.:
Miss You Chords, The Titanic Overture Tab, Arena Of Pleasure Tab, Deal With The Devil Chords, Crazy Chords, Im Alive Chords

Quick tip, so you can enjoy The Last Command Tab even more:

Try out the AutoScroller option ... It scrolls the page for you, so you can totally focus on nailing that solo. You can choose among different speeds using your mouse or your keyboard (keys 0, 1, 2 and 3).

Show us your talent, perform The Last Command Tab!

Here you can post a video or audio performance. Tell me more ...
Where can we find your performance? Tell me more ...
Your comment:
Please, log in to post your performance.