Artists by letter: A B C D E F G H I J K L M N O P Q R S T U V W X Y Z 0-9

 
Hellion Tab
notation:
^   =  bend
^>  =  bend and release
x   =  fret-hand muting
.   =  pick-hand muting
spm.=  slight palm muting
h   =  hammer-on
p   =  pull-off
~   =  vibrato
t   =  tap-on
/   =  slide up
   =  slide down
ah. =  artificial harmonics
nh. =  natural harmonics
(9) =  ghost note
"   =  trem picking

tune down half step

intro
e|-----------------------------------------------------------------------|
B|-----------------------------------------------------------------------|
G|--9------7------5------2------9------7------5------2----7--------------|
D|--7------5------3------2------7------5------3------2----5--------------|
A|-----------------------0---------------------------0-------------------|
E|-----------------------------------------------------------------------|

e|-----------------------------------------------------------------------|
B|-----------------------------------------------------------------------|
G|--9----9-7----7-5----5-2----7-9----9-7----7-5----5-2------2------------|
D|--7----7-5----5-3----3-2----5-7----7-5----5-3----3-2------2------------|
A|-----------------------0---------------------------0------0------5-----|
E|-----------------------------------------------------------------3-----|

verse
e|-----------------------------------------------------------------------|
B|-----------------------------------------------------------------------|
G|-----------------------------------------------------------------------|
D|--2-------------------------------2------------------------------------|
A|--0---0-0-0-0-0-0-0-0-0-0-0-0-5---0---0-0-0-0-0-0-0-0-0-0-0-0-5--------|
E|------------------------------3-------------------------------3--------|
        * * * * * * * * * * * *         * * * * * * * * * * * *
e|-----------------------------------------------------------------------|
B|-----------------------------------------------------------------------|
G|-----------------------------------------------------------------------|
D|--2-------------------------------7---5---7-------2--------------------|
A|--0---0-0-0-0-0-0-0-0-0-0-0-0-0-0-5---3---5---5---0--------------------|
E|----------------------------------------------3------------------------|
        * * * * * * * * * * * * * *
e|-----------------------------------------------------------------------|
B|-----------------------------------------------------------------------|
G|-----------------------------------------------------------------------|
D|--2-------------------------------2------------------------------------|
A|--0---0-0-0-0-0-0-0-0-0-0-0-0-5---0---0-0-0-0-0-0-0-0-0-0-0-0-5--------|
E|------------------------------3-------------------------------3--------|
        * * * * * * * * * * * *         * * * * * * * * * * * *
e|-----------------------------------------------------------------------|
B|-----------------------------------------------------------------------|
G|-----------------------------------------------------------------------|
D|--7---5---7------------------------------------------------------------|
A|--5---3---5---5---3------5------5--------------------------------------|
E|--------------3---1------3------3--------------------------------------|

chorus
e|-----------------------------------------------------------------------|
B|-----------------------------------------------------------------------|
G|--2--------------------------------------------------------------------|
D|--2------------3------------5---0-----0-2-0-----2----------------------|
A|--0------------3------------5-----2-3-------3-2-0------(5)-------------|
E|---------------1------------3--------------------------(3)-------------|

interlude
e|-----------------------------------------------------------------------|
B|-----------------------------------------------------------------------|
G|-----------------------------------------------------------------------|
D|--5------7------5------7------3------7------3--------------------------|
A|--5------7------5------7------3------7------3------5--5--5--5----------|
E|--3------5------3------5------1------5------1------3--3--3--3----------|

solo backing
e|-----------------------------------------------------------------------|
B|-----------------------------------------------------------------------|
G|-----------------------------------------------------------------------|
D|--2-------------------------------3------5---0-----0-2-0-----2---------|
A|--0---0-0-0-0-0-0-0-0-0-0-0-0-0-0-3------5-----2-3-------3-2-0---------|
E|----------------------------------1------3-----------------------------|
        * * * * * * * * * * * * * *
ending
e|-----------------------------------------------------------------------|
B|-----------------------------------------------------------------------|
G|-----------------------------------------------------------------------|
D|--0-----0-2-0-----2------0-----0-2-0-----2--2--2--0-----0-2-0-----2----|
A|----2-3-------3-2-0--------2-3-------3-2-0--0--0----2-3-------3-2-0----|
E|-----------------------------------------------------------------------|
 
 
W.A.S.P. - Hellion Tab :: indexed at Ultimate Guitar.
Hellion tabs @ 911Tabs
People who played W.A.S.P. - Hellion Tab also played these songs by W.A.S.P.:
Miss You Chords, The Titanic Overture Tab, Arena Of Pleasure Tab, Deal With The Devil Chords, Crazy Chords, Im Alive Chords

Quick tip, so you can enjoy Hellion Tab even more:

After the registration (which takes just 10 seconds, remember?) you will be able to use your profile - your very own piece of YourChords.com.

Show us your talent, perform Hellion Tab!

Here you can post a video or audio performance. Tell me more ...
Where can we find your performance? Tell me more ...
Your comment:
Please, log in to post your performance.