Artists by letter: A B C D E F G H I J K L M N O P Q R S T U V W X Y Z 0-9

 
Blind In Texas Tab
well here they are ionly tabed the lead(chris) so here you go

INRTO                                
|------------------------------|
|------------------------------|
|-----------------7-7-7--------|
|-----------------5-5-5--7-7-7-|
|-7-7-9-7-7-7-9-7--------5-5-5-|
|-5-5-5-5-5-5-5-5--------------|

SOLO 1
|----------------------------------------------------------------|
|----------------------------------------15hb--15----------------|
|-7hb~-5---------5*------------------------------14-14-14--14-12-|
|-------7--7-5-7-----7-5-7-7--7-5--------------------------------|
|---------------------------------7-6-5--------------------------|
|--------------------------------------5-------------------------|

|--------------------------------------------------------------------|
|---------------13-----------13----------8b-8-7-5--------------------|
|-14-12-14-14-14--14-14-12-14--14--7hb-5---------7-5-----------------|
|---------------------------------------7-----------7-5------------7-|
|------------------------------------------------------7-6-5---6-7---|
|-----------------------------------------------------------8-5------|

RIFF 1(PM SINGLE NOTES)
|------------------------------------------------------------------|
|------------------------------------------------------------------|
|-----------------------5-5--------------5---------5-5---------2-2-|
|-----------------------5-5--7---9---10--9---7---9-5-5---------2-2-|
|-7---9---10--9---7---9------5-5-5-5-5-5-5-5-5-5-5----2---4---5----|
|-5-5-5-5-5-5-5-5-5-5-5-------------------------------0-0-0-0-0----|

STILL RIFF 1
|--------------------------|
|--------------------------|
|-------------7-7----------|
|-7---9--10-9-7-7----------|
|-5-5-5-5-5-5----7---9--10-|
|----------------5-5-5-5-5-|

CHORUS
|--------------------|
|--------------------|
|-7~-------------5-7-|
|-5~-7~---5-3-5--5-7-|
|----5~-7~---5-------|
|-------5~-----------|

FILL
|---|
|---|
|---|
|---|
|-2-|
|-0-|

SOLO 2
|---------------5*-------------------------------------------------------------|
|-------------------8-7-5------------------------------------------------------|
|-7hb-5-5-----7b----------7*-5-5-5-4hb-4hb-4hb---------------------------------|
|------7-7-5-7----7-----------7-------7---7---7-5-7-5-7-7-5---------------5\7-|
|-----------7----------------------------------------7-----7-6-5-----5\6\7-----|
|---------------------------------------------------------------8\7\3----------|

|--------------------------|
|--------------------------|
|-7*-5hb-5-7--7*-5-5-------|
|-------7-7-7-----7-7-7-7*-|
|--------------------------|
|--------------------------|

RIFF1

FILL 2
|----------|
|----------|
|----------|
|-----9~---|
|-2~--7~---|
|-0~-------|

SOLO 3
|-------------------------------------------------------------------------|
|-----------------------------------------15b-12r--15b-12r----------------|
|-------------------------------9*-9hb-9~--------14-------14-14b-12r-14hb-|
|---------------------------5-7-------------------------------------------|
|-5~-5-5-7-7b-5r-7-9hb-9hb-7----------------------------------------------|
|-----7---------7---------------------------------------------------------|

|15*-15-14-12--14-12------------------------------------------------------------|
|------------15-----12-15*-12--------------------------------------17*17*17*----|
|----------------------------14-12~---9-9---9-9---9-9---9-9-----------------16*-|
|----------------------------------12b---12b---12b---12b------------------------|
|----------------------------------------------------------14*14*14*------------|
|-------------------------------------------------------------------------------|




 
 
W.A.S.P. - Blind In Texas Tab :: indexed at Ultimate Guitar.
Blind In Texas tabs @ 911Tabs
People who played W.A.S.P. - Blind In Texas Tab also played these songs by W.A.S.P.:
Miss You Chords, The Titanic Overture Tab, Arena Of Pleasure Tab, Deal With The Devil Chords, Crazy Chords, Im Alive Chords

Quick tip, so you can enjoy Blind In Texas Tab even more:

If you don't really know how to deal with "Absus4" chord and his equally confusing brothers, just put the mouse cursor over them and you will be shown a helpful chord diagram.

Show us your talent, perform Blind In Texas Tab!

Here you can post a video or audio performance. Tell me more ...
Where can we find your performance? Tell me more ...
Your comment:
Please, log in to post your performance.