Artists by letter: A B C D E F G H I J K L M N O P Q R S T U V W X Y Z 0-9

 
Symphony Tab
#----------------------------------PLEASE NOTE---------------------------------#
#This file is the author's own work and represents their interpretation of the #
#song. You may only use this file for private study, scholarship, or research. #
#------------------------------------------------------------------------------#
Transcribed by: Radtchenko Konstantin ([email protected])

Band: Boney 'NEM
Song: Symphony

Tuning D
 

Intro

Gtr 1
||-------------------------------------------------------------------------|
||-------------------------------------------------------------------------|
||-------------------------------------------------------------------------|
||------------------------4(4)-------------------4(4)--------------------|
||-----/---3-(3)---------2-(2)---------3(3)-----2-(2)--------------------|
||-----/---1-(1)-----------------------1-(1)------------------------------|
|                                                                          |
Gtr 2 (wah-wah + tremolo bar vibrato)                                      |
||-------------------------------------------------------------------------|
||------------------------A.H.-------------------A.H.----------------------|
||----------3~~~~~~-------4fb~~~~~~~----3~~~~~~~--4~~~~~~~~(4)//---------|
||-------------------------------------------------------------------------|
||-------------------------------------------------------------------------|
||-------------------------------------------------------------------------|
 
Gtr 1
|-------------------------------------------------------------------------|
|-------------------------------------------------------------------------|
|-------------------------------------------------------------------------|
|-------------------------------------------------------------------------|
|-------------------------------------------------------------------------|
|-------------------------------------------------------------------------|
|                                                                         |
Gtr 2 (wah-wah)                        ..............                     |
|------------------------------------/---*----*---*--*-------------------|
|-------11fbr-(11)p9--------------12fb---12--1212--12r------------------|
|-------(slow bend)----10~~~----------------------------------------------|
|-------------------------------------------------------------------------|
|-------------------------------------------------------------------------|
|-------------------------------------------------------------------------|

* - A.H.
 

Riff A

Gtr 1 and Gtr 2
||------------|----------------------------------------------||
||------------|----------------------------------------------||
||------------|----------------------------------------------||
||------------|-----3-(3)/43----3-(3)/43-------------------||
||-----3-(3)--|-----1-(1)/21----1-(1)/21-------------------||
||-----1-(1)--|----------------------------------------------||


Riff B

Gtr 1
||----------------------------------------------------------------------------------------|
||----------------------------------------------------------------------------------------|
||----------------------------------------------------------------------------------------|
||------3---------------3-----------------------------------------------------------------|
||------1-------3-------1---------3-----------3-------------------------------------------|
||--------------1-----------------1-----------1-------------------------------------------|
|                                                                                         |
|                                                                                         |
Gtr 2 (with wah-wah)                                                                      |
||--------------+--------------+----------------+-------------+---------------------------|
||----7-7-7~--6-6~---4-4-4~--2-2~-----4-4-4~--2-2~--1-1-1~---------8fb~--7-5-79fb-8~-----|
||----------------------------------------------------------3-3~--------------------------|
||----------------------------------------------------------------------------------------|
||----------------------------------------------------------------------------------------|
||----------------------------------------------------------------------------------------|

+ -  press pedal

Chorus

Gtr 1  Sym _ pho _ ny      Sym _ pho _ ny
||--------------------------------------------------------------|
||--------------------------------------------------------------|
||--------------------------------------------------------------|
||------3----3----3-(3)-----3----3----3(3)--3----3-------------|
||------1----1----1(1)-----1----1----1-(1)--1----1-------------|
||--------------------------------------------------------------|
|                                                               |
|                                                               |
Gtr 2 (wah-wah)                                                 |                  
||--------------------------------------------------------------|
||--------------------------------------------------------------|
||--------------------------------------------------------------|
||--------------------------------------------------------------|
||----1-1-1-1-1-1-1-1-1-1-1-1-1-1-1-1-1-1-1-1-1-1-1-1-----------|
||--------------------------------------------------------------|

 
both Gtrs  Sym _ pho _ ny      Sym _ pho _ ny

|-------------------------------------------------------------------------||
|-------------------------------------------------------------------------||
|-------------------------------------------------------------------------||
|----------6---------6------------6---6---6----8-(8)---10-(10)---6--8-----||
|----------4-4-4-4-4-4-4--4-4-4-4-4-4-4-4-4----6-(6)----8-(8)----4--6-----||
|-------------------------------------------------------------------------||

 
End.

 
 
Boney Nem - Symphony Tab :: indexed at Ultimate Guitar.
Symphony tabs @ 911Tabs

Quick tip, so you can enjoy Symphony Tab even more:

If you don't really know how to deal with "Absus4" chord and his equally confusing brothers, just put the mouse cursor over them and you will be shown a helpful chord diagram.

Show us your talent, perform Symphony Tab!

Here you can post a video or audio performance. Tell me more ...
Where can we find your performance? Tell me more ...
Your comment:
Please, log in to post your performance.