Artists by letter: A B C D E F G H I J K L M N O P Q R S T U V W X Y Z 0-9

 
Magic Zone Tab
-------------------------------------------------------------------------------
                             Magic Zone - Volbeat (Intro)
-------------------------------------------------------------------------------
Tabbed by: F.P. van den Bosch
E-mail: [email protected]

Tuning: Standard

INTRO
-----

Lead Guitar
e|----------------------------------------------------------------|
B|----------------------------------------------------------------|
G|-9h11-9h11-9h11-9-12-11-9----9-9-11--12-11----------------------|
D|---------------------------7--------------11--------------------| x3
A|----------------------------------------------------------------|
E|----------------------------------------------------------------|

Last time end with
e|-------------------------------------|
B|-------------------------------------|
G|-------------------------------------|
D|--14s15-15~--------------------------|
A|-------------------------------------|
E|-------------------------------------|

e|---------------------------------------------------------------------------|
B|---------------------------------------------------------------------------|
G|--7~-7-9-11-9-7h9p7s6~--6-7-9-7-6h7p6--------------------------------------|
D|--------------------------------------9~-----------------------------------|
A|---------------------------------------------------------------------------|
E|---------------------------------------------------------------------------|

e|---------------------------------------------------------------------------|
B|---------------------------------------------------------------------------|
G|--------6-7-9-7-6----12~-11-6----------------------------------------------|
D|--9-7-9-----------9--------------------------------------------------------|
A|---------------------------------------------------------------------------|
E|---------------------------------------------------------------------------|

Not completely sure about the last part, so additions and corrections are welcome.

Rhythm Guitar
e|---------------------|
B|---------------------|
G|-7-------------------|
D|-7---7---------------| x4
A|-5---7---------------|
E|-----5---------------|

End first part of intro on:
e|--------------------|
B|--------------------|
G|-7~-----------------|
D|-7~-----------------|
A|-5~-----------------|
E|--------------------|

e|---------------------------------------------------------------------------|
B|---------------------------------------------------------------------------|
G|-7-7-7-777-7-77-77----------------------4-4-4-444-4-44-44------------------|
D|-7-7-7-777-7-77-77--7-7-7-777-7-77-77---4-4-4-444-4-44-44--5~----5---------|
A|-5-5-5-555-5-55-55--7-7-7-777-7-77-77---2-2-2-222-2-22-22--5~--5---5-------|
E|--------------------5-5-5-555-5-55-55----------------------3~--------------|

VERSE
-----

The chords are correct, you can variate the strum pattern. This is an indication, it is 
not always correct. Palm mute slightly.

Rythm Guitar (Lead can play along)
e|---------------------------------------------------------------------------|
B|---------------------------------------------------------------------------|
G|-7-7-7-777-7-77-77----------------------4-4-4-444-4-44-44------------------|
D|-7-7-7-777-7-77-77--7-7-7-777-7-77-77---4-4-4-444-4-44-44--5~----5~--------|
A|-5-5-5-555-5-55-55--7-7-7-777-7-77-77---2-2-2-222-2-22-22--5~--5---5~------|
E|--------------------5-5-5-555-5-55-55----------------------3~--------------|

e|---------------------------------------------------------------------------|
B|---------------------------------------------------------------------------|
G|-7-7-7-777-7-77-77----------------------4-4-4-444-4-44-44------------------|
D|-7-7-7-777-7-77-77--7-7-7-777-7-77-77---4-4-4-444-4-44-44--5-5-5--7-7-7----|
A|-5-5-5-555-5-55-55--7-7-7-777-7-77-77---2-2-2-222-2-22-22--5-5-5--7-7-7----|
E|--------------------5-5-5-555-5-55-55----------------------3-3-3--5-5-5----|


CHORUS
------

e|---------------------------------------------------------------------------|
B|---------------------------------------------------------------------------|
G|-9---------7---------------------------------------------------------------|
D|-9----7----7----5----------------------------------------------------------| x2
A|-7----7----5----5----------------------------------------------------------|
E|------5---------3----------------------------------------------------------|
Repeat all chords during 1 measure

The second time, end with
e|----------------------|-----|------------------------------------------------|
B|----------------------|-----|------------------------------------------------|
G|----------------------|-----|------------------------------------------------|
D|-5-(playing this)--7--|--7--|--5---------------------------------------------|
A|-5-----------------7--|--7--|--5---------------------------------------------|
E|-3-----------------5--|--5--|--3---------------------------------------------|

BREAK
-----
e|---------------------------------------------------------------------------|
B|---------------------------------------------------------------------------|
G|-7-7-7-777-7-77-77----------------------4-4-4-444-4-44-44------------------|
D|-7-7-7-777-7-77-77--7-7-7-777-7-77-77---4-4-4-444-4-44-44--5~----5~--------|
A|-5-5-5-555-5-55-55--7-7-7-777-7-77-77---2-2-2-222-2-22-22--5~--5---5~------|
E|--------------------5-5-5-555-5-55-55----------------------3~--------------|


VERSE
-----
e|---------------------------------------------------------------------------|
B|---------------------------------------------------------------------------|
G|-7-7-7-777-7-77-77----------------------4-4-4-444-4-44-44------------------|
D|-7-7-7-777-7-77-77--7-7-7-777-7-77-77---4-4-4-444-4-44-44--5~----5~--------|
A|-5-5-5-555-5-55-55--7-7-7-777-7-77-77---2-2-2-222-2-22-22--5~--5---5~------|
E|--------------------5-5-5-555-5-55-55----------------------3~--------------|
pm . . . ... . .. ..  . . . ... . .. ..   . . . ... . .. ..

e|---------------------------------------------------------------------------|
B|---------------------------------------------------------------------------|
G|-7-7-7-777-7-77-77----------------------4-4-4-444-4-44-44------------------|
D|-7-7-7-777-7-77-77--7-7-7-777-7-77-77---4-4-4-444-4-44-44--5-5-5--7-7-7----|
A|-5-5-5-555-5-55-55--7-7-7-777-7-77-77---2-2-2-222-2-22-22--5-5-5--7-7-7----|
E|--------------------5-5-5-555-5-55-55----------------------3-3-3--5-5-5----|
pm . . . ... . .. ..  . . . ... . .. ..   . . . ... . .. ..


CHORUS
------
Same as first chorus

BRIDGE
------
Lead guitar
e|----------------------|----|-----------------------------------------------|
B|----------------------|----|-----------------------------------------------|
G|----------------------|----|-----------------------------------------------|
D|--7---7~-----5-4-5-4--|-x2-|-----------------------------------------------| x2
A|--5-5---5----3-2-3-2--|----|--00000000000000000----------------------------|
E|----------------------|----|-----------------------------------------------|
pm    .                         .................


CHORUS
------
Same as first chorus


OUTRO
-----
Rhythm Guitar
e|---------------------|
B|---------------------|
G|-7-------------------|
D|-7---7---------------| x4
A|-5---7---------------|
E|-----5---------------|

End on:
e|--------------------|
B|--------------------|
G|-7------------------|
D|-7------------------|
A|-5------------------|
E|--------------------|


Lead Guitar
e|----------------------------------------------------------------|
B|----------------------------------------------------------------|
G|-9h11-9h11-9h11-9-12-11-9----9-9-11--12-11----------------------|
D|---------------------------7--------------11--------------------| x3
A|----------------------------------------------------------------|
E|----------------------------------------------------------------|

Last time end with
e|-------------------------------------|
B|-------------------------------------|
G|-------------------------------------|
D|--14s15-15~--------------------------|
A|-------------------------------------|
E|-------------------------------------|


Any consructive comments would be greatly appreciated!
 
 
Volbeat - Magic Zone Tab :: indexed at Ultimate Guitar.
Magic Zone tabs @ 911Tabs

Quick tip, so you can enjoy Magic Zone Tab even more:

After the registration (which takes just 10 seconds, remember?) you will be able to use your profile - your very own piece of YourChords.com.

Show us your talent, perform Magic Zone Tab!

Here you can post a video or audio performance. Tell me more ...
Where can we find your performance? Tell me more ...
Your comment:
Please, log in to post your performance.