Artists by letter: A B C D E F G H I J K L M N O P Q R S T U V W X Y Z 0-9

 
Heaven Nor Hell Tab
-------------------------------------------------------------------------------
                             Heaven Nor Hell - Volbeat
-------------------------------------------------------------------------------
Tabbed by: Lucas Strickland
E-mail:


Tuning: D Standard

Intro:
d|---------------------------------------------------------------------------|
A|---------------------------------------------------------------------------|
F|-10-10---10-10---10-10-----10--10-10--10-10--------------------------------|
C|-10-10---10-10---10-10-----10---8--8--10-10--10-10-------------------------|X2
G|--8--8----8--8----8--8------8----------8--8--10-10-------------------------|
D|----------------------------------------------8--8-------------------------|

d|---------------------------------------------------------------------------|
A|---------------------------------------------------------------------------|
F|---------------------------------------------------------------------------|
C|--10-----------------------------------------------------------------------|
G|--10-----------------------------------------------------------------------|
D|---8-----------------------------------------------------------------------|
     ************************** Palm Mute and Slowly Release


Second part of the intro uses same chords, just play open eighth notes.


Verse is the same chords as intro. For second part of the verse, play palm 
muted eighth notes.(Listen to song and you'll easily catch the strum pattern)


Chorus
d|---------------------------------------------------------------------------|
A|---------------------------------------------------------------------------|
F|------------------10-------------------------------------------------------|
C|---8------10------10-x8---8------------------------------------------------|X2
G|---8-x8---10-x8----8------8-x8---------------------------------------------|
D|---6-------8--------------6------------------------------------------------|

d|---------------------------------------------------------------------------|
A|---------------------------------------------------------------------------|
F|---------------------------------------------------------------------------|
C|---8------10---------------------------------------------------------------|
G|---8-x8---10-x16-----------------------------------------------------------|
D|---6-------8---------------------------------------------------------------|

Break Between Chorus and Verse 2; Same as Second part of intro


Verse 2: same as verse 1

Chorus 2: same as chorus 1


Bridge: Rhythm and lead parts

Rhythm
d|---------------------------------------------------------------------------|
A|---------------------------------------------------------------------------|
F|---------------------------------------------------------------------------|
C|---3--------3-3-8----------8-8-3-----------3-3-8---------------------------|X2
G|---3--------3-3-8----------8-8-3-----------3-3-8---------------------------|
D|---1--------1-1-6----------6-6-1-----------1-1-6---------------------------|
    Let ring      Let Ring       Let Ring        Let Ring

Lead
e|---------------------------------------------------------------------------|
B|---------------------------------------------------------------------------|
G|--12/14-12/14~-------------------------------------------------------------|
D|--------------------------14\12~-----12/14-14-14-14-14-14-15-15-15-15-15-15|X2
A|---------------------------------------------------------------------------|
E|---------------------------------------------------------------------------|

Bridge Part 2: Rhythm
d|---------------------------------------------------------------------------|
A|---------------------------------------------------------------------------|
F|---------------------------------------------------------------------------|
C|-3-3-3--3-3-3--3-3-3--3-3-3--3---8-8-8--8-8-8--8-8-8--8-8-8--8-------------|X2
G|-3-3-3--3-3-3--3-3-3--3-3-3--3---8-8-8--8-8-8--8-8-8--8-8-8--8-------------|
D|-1-1-1--1-1-1--1-1-1--1-1-1--1---6-6-6--6-6-6--6-6-6--6-6-6--6-------------|
Palm Muted: Listen to song for strum pattern, Tabbed it as best as I could. 

d|---------------------------------------------------------------------------|
A|---------------------------------------------------------------------------|
F|---5/7-5/7~----------------------------------------------------------------|X2
C|-------------------7\5~---5/7-7-7-7-7-7-8-8-8-8-8-8------------------------|
G|---------------------------------------------------------------------------|
D|---------------------------------------------------------------------------|
                              * * * * * * * * * * * * Palm Muted

Play Bridge Pt. 1&2 again then go into this before another break

d|---------------------------------------------------------------------------|
A|---------------------------------------------------------------------------|
F|---------------------------------------------------------------------------|
C|--10---------10-----------------10-10-10-10-10-10-10-10--------------------|
G|--10---------10-----------------10-10-10-10-10-10-10-10--------------------|
D|---8----------8------------------8--8--8--8--8--8--8--8--------------------|
    Let Ring    Let Ring


Then the song goes into another break with harp, play the same chords as the 
first break between chorus 1 and Verse 2

Verse 3: Same as other verses

Chorus 3: same as other chorus'

The outro of the song is the same as the bridge Except the lead guitar plays
the First part of the Bridge(Higher octave riff) while the rhythm guitar plays 
part 2 of the bridge(palm mute part)

Lead guitar Ends on F|-14-|(I usually bend the 12th fret up a step)and rhythm 
guitar ends on   
C|-3-|
G|-3-|
D|-1-|

Decided to tab this song because all of the other versions are either incorrect
(I know this tabis not 100% but is more accurate than the rest) or missing parts.

Enjoy!

************************************

| /   slide up
| \   slide down
| h   hammer-on
| p   pull-off
| ~   vibrato
| +   harmonic
| x   Mute note
| b   Bend
| pb  Pre-bend
| br  Bend release
| pbr Pre-bend release
| brb Bend release bend

************************************
 
 
Volbeat - Heaven Nor Hell Tab :: indexed at Ultimate Guitar.
Heaven Nor Hell tabs @ 911Tabs

Quick tip, so you can enjoy Heaven Nor Hell Tab even more:

After the registration (which takes just 10 seconds, remember?) you will be able to use your profile - your very own piece of YourChords.com.

Show us your talent, perform Heaven Nor Hell Tab!

Here you can post a video or audio performance. Tell me more ...
Where can we find your performance? Tell me more ...
Your comment:
Please, log in to post your performance.